Cifra Club

Save Your Scissors

City And Colour

Cifrado: Principal (guitarra y guitarra eléctrica)
tono: G
E|----7-6p4-4-4-4-4-4-4-----7-6p4-4-4-4-4-4-4-|
C|----4-4-4-8-6p4-4-4-4-----4-4-4-8-6p4-4-4-4-|
G|-44-4-4-4-4-4-4-8-6p4--44-4-4-4-4-4-4-8-6p4-|
D|-44-4-4-4-4-4-4-4-4-4--44-4-4-4-4-4-4-4-4-4-|
B|-66-6-6-6-6-6-6-6-6-6--66-6-6-6-6-6-6-6-6-6-|
E|-77-7-7-7-7-7-7-7-7-7--77-7-7-7-7-7-7-7-7-7-|

E|---7/9-7p6p4-4-4-4-4-4-4-4-4-4-4-4-4-4-4-|
C|---4-4-4-4-4-8-6p4-4-4-4-4-4-4-4-4-4-4-4-|
G|44-4-4-4-4-4-4-4-4-8-6p4-6/8-6-4-4-4-4-4-|
D|66-4-4-4-4-4-4-4-4-4-4-4-4-4-4-7/9-7-5-4-|
B|66-6-6-6-6-6-6-6-6-6-6-6-6-6-6-6-6-6-6-6-|
E|77-7-7-7-7-7-7-7-7-7-7-7-7-7-7-7-7-7-7-7-|

Verso:
E|----7-6-4-4-4-4-4-4-4-----7-6-4-4-4-4-4-4-4-|
C|----4-4-4-8-6-4-4-4-4-----4-4-4-8-6-4-4-4-4-|
G|-44-4-4-4-4-4-4-8-6-4--44-4-4-4-4-4-4-8-6-4-|
D|-44-4-4-4-4-4-4-4-4-4--44-4-4-4-4-4-4-4-4-4-|
B|-66-6-6-6-6-6-6-6-6-6--66-6-6-6-6-6-6-6-6-6-|
E|-77-7-7-7-7-7-7-7-7-7--77-7-7-7-7-7-7-7-7-7-|

Pre-Refrão:
E|-4-4---4-|
C|-4-4---4-|
G|-6/8---6-|
D|-4-4---4-|
B|-4-4---4-|
E|-4-4---4-|

Refrão:
E|4---4-4--4-4--4--4--|
C|4---4-4--4-4--4--4--|
G|11--9-8--9-8--4--4--|
D|11--9-9--9-9--14-13-|
B|9---7-7--4-4--12-12-|
E|9---7-7--4-4--12-12-|

00:00 / 00:00
Otros videos de esta canción
Repetir
Otros videos de esta canción
Composición de Dallas Green
Colaboración y revisión:
  • MC
129 exhibiciones
    • ½ Tono
    • A
    • Bb
    • B
    • C
    • Db
    • D
    • Eb
    • E
    • F
    • F#
    • G
    • Ab
  • Agregar a la lista
    00:00 / 00:00
    OK