Cifra Club

Dango Daikazoku

Clannad After Story

Tablatura: Principal (guitarra)
Já pensou em usar uma coleção de roupas do Cifra Club? Responda as perguntas abaixo e nos ajude nessa missão! →
tono: G
Intro:
E|--------------------------------------------------------|
B|----------------------12--------------------------------|
G|-------12--12-------------12------------12--12-------12-|
D|---12----------7--7-----------12----12----------7-7-----|
A|-7--------------------------------7---------------------|
E|--------------------------------------------------------|

E|-----3--3--5--5--7--3---------3--3--5--5--3----|
B|-5-3-------------------3--5-3------------------|
G|-----------------------------------------------|
D|-----------------------------------------------|
A|-----------------------------------------------|
E|-----------------------------------------------|

Verso 1:
E|-----3--3--5--5--7--3---------3--3--5--5--7--5-|
B|-5-3-------------------3--5-3------------------|
G|-----------------------------------------------|
D|-----------------------------------------------|
A|-----------------------------------------------|
E|-----------------------------------------------|

E|-----3--3--5--5--7--3---------3--3--5-5--3-|
B|-5-3-------------------3--5-3--------------|
G|-------------------------------------------|
D|-------------------------------------------|
A|-------------------------------------------|
E|-------------------------------------------|

Verso 2:
E|-8-7-----------5-----------------8-7-----------5-------|
B|------8--5--8-----5--8-----5--8-------8--5--8-----5--8-|
G|------------------------7------------------------------|
D|-------------------------------------------------------|
A|-------------------------------------------------------|
E|-------------------------------------------------------|

E|-8-7-----------5-----------------------------|
B|------8--5--8-----5--8-----5-8-----8---------|
G|------------------------7-------7-----5--(5)-|
D|---------------------------------------------|
A|---------------------------------------------|
E|---------------------------------------------|

Refrão:
E|------------5-5----------5-7--10-5-7---------5-5-----------10-7-|
B|----------8-------8-5--8--------------8-5-8-------8-5--8-5------|
G|--------7-------------------------------------------------------|
D|-(7)-7----------------------------------------------------------|
A|----------------------------------------------------------------|
E|----------------------------------------------------------------|

E|------------5-5----------5-7--10-5-7-----------------------|
B|----------8-------8-5--8---------------8--7--5--5-7-8--7-8-|
G|--------7--------------------------------------------------|
D|-(7)-7-----------------------------------------------------|
A|-----------------------------------------------------------|
E|-----------------------------------------------------------|
Colaboración y revision:
  • Aline Loureiro
5.686 reproducciones
    • ½ Tono
    • A
    • Bb
    • B
    • C
    • Db
    • D
    • Eb
    • E
    • F
    • F#
    • G
    • Ab
  • Adicionar à lista

    0 comentarios

    Ver todos os comentários

    ¿Conseguiste tocar?

    6 Tocaram 0 Ainda não

    Grave um vídeo tocando Dango Daikazoku e nos envie!

    00:00 / 00:00
    outros vídeos desta música
    repetir qualidade Automático
    Outros vídeos desta música
    00:00 / 00:00
    Automático
    OK