Cifra Club

Out To Get Me

Clawfinger

Cifrado: Principal (guitarra y guitarra eléctrica)
tono: F

Tabbed By: guitarfreak


Drop D Tuning

Intro/Chorus

Guitar 1
e------------------------------------|
B----------6-------------------------|
G---7--7-7---7---9-9-9-9-9-9--7/9--6-|
D------------------------------------|
A------------------------------------|
D------------------------------------|

Guitar 2
e---------------------------------------------|
B---------------------------------------------|
G---------------------------------------------|
D-12-12-12-12-12-12---10-10-10-10-10-10---8-8-|
A-12-12-12-12-12-12---10-10-10-10-10-10---8-8-|
D-12-12-12-12-12-12---10-10-10-10-10-10---8-8-|


Main Riff

e---------------------------------------------|
B---------------------------------------------|
G---------------------------------------------|
D--------1-------1---------1-----1/3--3/1-----|
A-0-0-0--1--0-0--1--0-0-0--1--0--1/3--3/1-----|
D-0-0-0--1--0-0--1--0-0-0--1--0--1/3--3/1-----|
p.m.--|

================================================================================
00:00 / 00:00
Otros videos de esta canción
Repetir
Otros videos de esta canción
Composición de Clawfinger
15 vistas
    • ½ Tono
    • A
    • Bb
    • B
    • C
    • Db
    • D
    • Eb
    • E
    • F
    • F#
    • G
    • Ab
  • Agregar a la lista

    0 comentarios

    Ver todos los comentarios

    ¿Lograste tocar?

    0 Tocaron 0 Aún no

    ¡Graba un video tocando Out To Get Me y envíanoslo!

    00:00 / 00:00
    OK