Cifra Club

Devil

CLC

Cifrado: Principal (guitarra y guitarra eléctrica)
Selo Cifra Club: esta cifra foi revisada para atender aos critérios oficiais da nossa Equipe de Qualidade.
tono: Em
E|------------------------------|
B|------------------------------|
G|------------------------------|
D|------------------------------|
A|------------------------------|
E|----7-7-5-7--7-5-7-0-2-5--6-7-|

[Verse & Chorus]

E|----------------------------------------------|
B|----------------------------------------------|
G|----------------------------------------------|
D|----------------------------------------------|
A|----------------------------------------------|
E|-7-5-7--7-5-7-7-5-7-7-7-5-3-3-2-3-3-2-3-3-2-3-|

E|---------------------------------------|
B|---------------------------------------|
G|---------------------------------------|
D|---------------------------------------|
A|---5-6-7--7-5-7--7-5-------------------|
E|-7-------------------5-5-3-5--5-5-6-7--|

E|--------------------------|
B|--------------------------|
G|--------------------------|
D|--------------------------|
A|--------------------------|
E|--7-5-7--7-5-7-0-2-5--6-7-|

[Bridge]

E|--------------------|
B|--------------------|
G|--------------------|
D|--7-7-7-7-7-7-7-7---|
A|--------------------|
E|--------------------| (x7)

[Final Chorus]

E|------------------------------------------------|
B|------------------------------------------------|
G|------------------------------------------------|
D|------------------------------------------------|
A|------------------------------------------------|
E|-7-7-5-7--7-5-7-7-5-7-7-7-5-3-3-2-3-3-2-3-3-2-3-|

E|---------------------------------------|
B|---------------------------------------|
G|---------------------------------------|
D|---------------------------------------|
A|---5-6-7--7-5-7--7-5-------------------|
E|-7-------------------5-5-3-5--5-5-6-7--|

E|--------------------------|
B|--------------------------|
G|--------------------------|
D|--------------------------|
A|--------------------------|
E|--7-5-7--7-5-7-0-2-5--6-7-|

E|----------------------------------------------|
B|----------------------------------------------|
G|----------------------------------------------|
D|----------------------------------------------|
A|----------------------------------------------|
E|-7-5-7--7-5-7-7-5-7-7-7-5-3-3-2-3-3-2-3-3-2-3-|

E|---------------------------------------|
B|---------------------------------------|
G|---------------------------------------|
D|---------------------------------------|
A|---5-6-7--7-5-7--7-5-------------------|
E|-7-------------------5-5-3-5--5-5-6-7--|

E|---------------------------|
B|---------------------------|
G|---------------------------|
D|---------------------------|
A|---------------------------|
E|--7-5-7--7-5-7-0-2-5--6-7\-|
Otros videos de esta canción
    16 exhibiciones
      • ½ Tono
      • Am
      • Bbm
      • Bm
      • Cm
      • C#m
      • Dm
      • Ebm
      • Em
      • Fm
      • F#m
      • Gm
      • G#m
    • Agregar a la lista

    Afinação da cifra

    Afinador online

      Ops (: Contenido disponible solo en portugués.
      OK