Cifra Club

Backoned

Coal Chamber

Cifrado: Principal (guitarra y guitarra eléctrica)
Selo Cifra Club: esta cifra foi revisada para atender aos critérios oficiais da nossa Equipe de Qualidade.
tono: A
Tuning: A D D G B e

Drop E to A
Drop A to D

Intro:

|--------------------------------------------------|
|--------------------------------------------------|
|--------------------------------------------------|
|--------------------------------------------------|
|--2b~~~~~~~~~~~~~~~~~~~---------------------------|
|--------------------------------------------------|
(Something like that)

Verse:

|---------------||
|---------------||0
|---------------||
|---------------||
|-7--7-7-7-7--7-||0
|-5--5-5-5-5--5-||
PM -------------

Main riff:
|--------------------------------------------------|
|--------------------------------------------------|
|--------------------------------------------------|
|--------------------------------------------------|
|-7--7-7-7-7--7-\-3--3-3-3-3-3-\-2--2-2-2-2-2-2----|
|-5--5-5-5-5--5-\-1--1-1-1-1-1-\-0--0-0-0-0-0-0----|

|--------------------------------------------------|
|--------------------------------------------------|
|--------------------------------------------------|
|--------------------------------------------------|
|-2-2-2-2--3-3-5-5-5~~-----------------------------|
|-0-0-0-0--1-1-3-3-3~~-----------------------------|
Otros videos de esta canción
    15 exhibiciones
      • ½ Tono
      • A
      • Bb
      • B
      • C
      • Db
      • D
      • Eb
      • E
      • F
      • F#
      • G
      • Ab
    • Agregar a la lista

    Afinação da cifra

    Afinador online

      Ops (: Contenido disponible solo en portugués.
      OK