Cifra Club

Empty Jar

Coal Chamber

Cifrado: Principal (guitarra y guitarra eléctrica)
Selo Cifra Club: esta cifra foi revisada para atender aos critérios oficiais da nossa Equipe de Qualidade.
tono: A
E|-------------------------------|
B|---21---21---21---21---21---21-|
G|-------------------------------|
D|-18---18---18---19---19---19---|
A|-------------------------------|
E|-------------------------------|

E|-----|
B|-----|
G|-----|
A |-18~-|
E|-----|
B|-----|


[Verse 2]

E|-------------------------------|
B|---21--------21---21--------21-|
G|-------------------------------|
D|-18---18-------19---19---------|
A|-------------------------------|
E|-------------------------------|

[Verse 1,2]

[Heavy Verse]                     

E|--------------------------|
B|--------------------------|
G|--------------------------|
D|-1-1----1-1----1-1----1-1-|
A|-1-1----1-1----1-1----1-1-|
E|-1-1----1-1----1-1----1-1-| (x4)
    - -    - -    - -    - -


[Verse 3]

E|-------------------------------|
B|----21-------------21----------|
G|-------------------------------|
D|-18----18----18-19----19----19-|
A|-------------------------------|
E|-------------------------------| (x2)


[Verse 2]

E|-------------------------------|
B|---21--------21---21--------21-|
G|-------------------------------|
D|-18---18-------19---19---------|
A|-------------------------------|
E|-------------------------------|(x2)


[Heavy Verse]                     

E|--------------------------|
B|--------------------------|
G|--------------------------|
D|-1-1----1-1----1-1----1-1-|
A|-1-1----1-1----1-1----1-1-|
E|-1-1----1-1----1-1----1-1-| (x4)
    - -    - -    - -    - -


[Chorus]

E|---------------------------------|
B|---------------------------------|
G|---------------------------------|
D|-7----10-9-13-12-7----10-9-13-12-|
A|-7----10-9-13-12-7----10-9-13-12-|
E|-7----10-9-13-12-7----10-9-13-12-| (x4)


[Interlude 1]

E|--------------------------------------------------------------------------------------|
B|--------------------------------------------------------------------------------------|
G|--------------------------------------------------------------------------------------|
D|-1-1---1-1--------1-1---1-1---1-1--0~--1-1---1-1---------1-1---1-1---1-1--3-3-3-3-3---|
A|-1-1---1-1--------1-1---1-1---1-1--0~--1-1---1-1---------1-1---1-1---1-1--3-3-3-3-3---|
E|-1-1---1-1--------1-1---1-1---1-1--0~--1-1---1-1---------1-1---1-1---1-1--3-3-3-3-3---|
    - -   - -        - -   - -   - -      - -   - -         - -   - -   - -  - - - - -


[Interlude 2]

E|-------------------------------------------------------|
B|-------------------------------------------------------|
G|-------------------------------------------------------|
D|-1-1--1-1--1-1--1-1-----1-1---1-1--1-1--1-1-1-3--1-1-3-|
A|-1-1--1-1--1-1--1-1-----1-1---1-1--1-1--1-1-1-3--1-1-3-|
E|-1-1--1-1--1-1--1-1-----1-1---1-1--1-1--1-1-1-3--1-1-3-| (x2)
    - -  - -  - -  - -     - -   - -  - -  - - -    - -


[Interlude 3]

E|--------------------------|
B|--------------------------|
G|--------------------------|
D|-1-1--1-1--1-1-1-3--1-1-3-|
A|-1-1--1-1--1-1-1-3--1-1-3-|
E|-1-1--1-1--1-1-1-3--1-1-3-| (x4)
    - -  -    - - -    - -


[Chorus]

E|---------------------------------|
B|---------------------------------|
G|---------------------------------|
D|-7----10-9-13-12-7----10-9-13-12-|
A|-7----10-9-13-12-7----10-9-13-12-|
E|-7----10-9-13-12-7----10-9-13-12-| (x4)

(then)
E|-----------------------------------|
B|-----------------------------------|
G|-9----12-11-15-14-9----12-11-15-14-|
D|-7----10-9--13-12-7----10-9--13-12-|
A|-7----10-9--13-12-7----10-9--13-12-|
E|-7----10-9--13-12-7----10-9--13-12-| (x4)


[Interlude 2]

E|-------------------------------------------------------|
B|-------------------------------------------------------|
G|-------------------------------------------------------|
D|-1-1--1-1--1-1--1-1-----1-1---1-1--1-1--1-1-1-3--1-1-3-|
A|-1-1--1-1--1-1--1-1-----1-1---1-1--1-1--1-1-1-3--1-1-3-|
E|-1-1--1-1--1-1--1-1-----1-1---1-1--1-1--1-1-1-3--1-1-3-| (x2)
    - -  - -  - -  - -     - -   - -  - -  - - -    - -


   [Interlude 3]

E|--------------------------|
B|--------------------------|
G|--------------------------|
D|-1-1--1-1--1-1-1-3--1-1-3-|
A|-1-1--1-1--1-1-1-3--1-1-3-|
E|-1-1--1-1--1-1-1-3--1-1-3-| (x8)
    - -  -    - - -    - -


[End On]

E|----|
B|----|
G|----|
A |-1~-|
E |-1~-|
A |-1~-|
Otros videos de esta canción
    15 exhibiciones
      • ½ Tono
      • A
      • Bb
      • B
      • C
      • Db
      • D
      • Eb
      • E
      • F
      • F#
      • G
      • Ab
    • Agregar a la lista

    Afinação da cifra

    Afinador online

      Ops (: Contenido disponible solo en portugués.
      OK