Cifra Club

Fiend

Coal Chamber

Cifrado: Principal (guitarra y guitarra eléctrica)
Selo Cifra Club: esta cifra foi revisada para atender aos critérios oficiais da nossa Equipe de Qualidade.
tono: C
Frase I
B|-3-0-0-3-0-0-3-0-3-0-0-3-0-0-0-------
E|-------------------------------------
A|-------------------------------------
D|-------------------------------------
G|-------------------------------------

Frase II
B|-------------------------------------
E|-------------------------------------
A|-0-2-2-5---2---0-2-0-2--2-5-2--------
D|-------------------------------3-3-3-
G|-------------------------------------

Frase I

Frase II

Frase I

Frase III
B|-0-0-8-0-0-3-0-0-3-0-0-3-0-3-2-1-----
E|-------------------------------------
A|-------------------------------------
D|-------------------------------------
G|-------------------------------------

Frase II

Frase IV
B|-------------------------------------
E|4-3-3-4-3-3-4-3-4-3-3-4-3-3-4-3------
A|-------------------------------------
D|-------------------------------------
G|-------------------------------------


Frase V
B|-------------------------------------
E|-------------------------------------
A|5-4-4-4-4-4-4-4----------------------
D|-------------------------------------
G|-------------------------------------

Frase III
Frase II
Frase IV
Otros videos de esta canción
    49 exhibiciones
      • ½ Tono
      • A
      • Bb
      • B
      • C
      • Db
      • D
      • Eb
      • E
      • F
      • F#
      • G
      • Ab
    • Agregar a la lista

    Afinação da cifra

    Afinador online

      Ops (: Contenido disponible solo en portugués.
      OK