Cifra Club

First

Coal Chamber

Cifrado: Principal (guitarra y guitarra eléctrica)
Selo Cifra Club: esta cifra foi revisada para atender aos critérios oficiais da nossa Equipe de Qualidade.
tono: C#m
E|E|----------------------------------------------------------------------|
                             FIRST by Coal Chamber
E|E|----------------------------------------------------------------------|

Tabbed on February 27th 2011 (edited on June 29th 2018).

Tuning: Drop B

This is the 7th track from Coal Chamber's debut album released in 1997. It's a pretty
easy song, but still, pretty fun to play. This is my second tab ever written, so don't
expect it to be perfect.


INTRO RIFF 4x (0:20)
E|------------------------------------------------------------------|
B|------------------------------------------------------------------|
G|-------------------------------------------------------------------|
D|---3---4---1---3---4---6---4---3-----------------------------------|
A|------------------------------------------------------------------|
E|-------------------------------------------------------------------|

CHORUS RIFF 4x (0:58)
E|-----------------3------------------------------------------------|
B|------------------------------------------------------------------|
G|-------------------------------------------------------------------|
D|-------------------------------------------------------------------|
A|---3-3-3-3-4-3-3---3-3-3-6-4-4-3----------------------------------|
E|----3-3-3-3-4-3-3---3-3-3-6-4-4-3----------------------------------|

BRIDGE (1:16)
E|-------------------------------------------------------------------|
B|-------------------------------------------------------------------|
G|--------------------------------------------------------------------|
D|--------------------------------------------------------------------|
A|--3-2-3-2--0-4-3-2--0-2-2b-2-0-------------------------------------|
E|---3-2-3-2--0-4-3-2--0-2-2b-2-0-------------------------------------|

INTRO RIFF 1x (1:19)


Then comes the CHORUS RIFF 4x (1:57)

And then you wanna play the BRIDGE 9x (2:16), which ends at some parts like this;
E|----------------------------------|--------------------------------|
B|----------------------------------|--------------------------------|
G|-----------------------------------|--------------------------------|
D|-----------------------------------|--------------------------------|
A|--3-2-3-2--0-4-3-2--0-2-2b-2-0----|---3-2-3-2--0-4-3-2---2-2--2-2--|
E|---3-2-3-2--0-4-3-2--0-2-2b-2-0----|---3-2-3-2--0-4-3-2---2-2--2-2--|

BDA KC WN 4x (2:58)
E|-----------|--------------------------------------------------------|
B|-------18b-|--------------------------------------------------------|
G|--------17b-|--------------------------------------------------------|
D|------------|--------------------------------------------------------|
A|----3-3----|-4-3-1-3-3--3-4-3--4-3-1-3------------------------------|
E|-----3-3----|-4-3-1-3-3--3-4-3--4-3-1-3------------------------------|
Otros videos de esta canción
    5 exhibiciones
      • ½ Tono
      • Am
      • Bbm
      • Bm
      • Cm
      • C#m
      • Dm
      • Ebm
      • Em
      • Fm
      • F#m
      • Gm
      • G#m
    • Agregar a la lista

    Afinação da cifra

    Afinador online

      Ops (: Contenido disponible solo en portugués.
      OK