Cifra Club

Loco Intro

Coal Chamber

Cifrado: Principal (guitarra y guitarra eléctrica)
Selo Cifra Club: esta cifra foi revisada para atender aos critérios oficiais da nossa Equipe de Qualidade.
tono: C
Tabbed by Jimothy aka The Evil_Jester_666
Tuning: B F# B E G# C#
singer Dez Fafara's other band DevilDriver so rock on!!!!!
It's about 98% correcto mondo and here it is and listen to the song cause it'll help
the timing and its a bit unorganized but it shouldn't be hard to piece it together and Rock
metal heads!!!!!!!! so hope u like it and enjoy it with an obscene but cool passion and 
don't care if u rate it or not......I know its close.......Its my first tab so if it
don't complain cuz' i don't give an ass's rats...HERE IT IS!!!!!!!!!!

Intro:                                                          (X1)
e---------------------------------------------------------------------------|
B--16----------------------------------15-----------------------------------|
G--x------------------------------------------------------------------------|
D--14-------------------------------13--------------------------------------|
A---------------------------------------------------------------------------|
E---------------------------------------------------------------------------|

e---0----0------0 --0------0-----0 --0------0-----0 ----0----0-----0------|
B-4---44-----4--- 4------4-----4-- 3----3--3-----3- -3-----3-----3--------|
G---------------- ---------------- ---------------- ----------------------|
D---------------- ---------------- ---------------- ----------------------|
A---------------- ---------------- ---------------- ----------------------|
E---------------- ---------------- ---------------- ----------------------|

e---------------- ---------------- ----------------- ------------------|
B----16---------- ---16----------- ---15------------ ---16-------------|
G---------------- ----x----------- ----------------- ---X--------------|
D--14------------ ---14----------- --13------------- ---14-------------|
A---------------- ---------------- ----------------- ------------------|
E---------------- ---------------- ----------------- ------------------|

e---------------- ---------------- ------------------ ------------------|
B---(16)--------- ---15----------- ---16------------- ---(16)-----------|
G---------------- -------13------- ---X-------------- ------------------|
D---(14)--------- ---------------- ---14------------- ---(14)-----------|
A---------------- ---------------- ------------------ ------------------|
E---------------- ---------------- ------------------ ------------------|

e---------------- ---------------- ------------------ ------------------|
G---(16)----15--- ---------------- ------------------ ------------------|
B---------------- -------14------- ------------------ ------------------|
D---(14)-------13 ---------------- ------------------ ------------------|
A---------------- ---------------- ------------------ ------------------|
E---------------- ---------------- ------------------ ------------------|

Then:
e---------------------------------------------------------------------------|
B---------------------------------------------------------------------------|
G---------------------------------------------------------------------------|
D---------------------------------------------------------------------------|
A--------------------------------------------------------3---2--------------|
E-0-2---0-2---0-2-----0-2-3-2-----0-2---0-2---0-2---0-2---------------------|

e---------------------------------------------------------------------------|
B---------------------------------------------------------------------------|
G---------------------------------------------------------------------------|
D--------------------------------------------------------------4------------|
A--------------------------------------------------------------4--------4-2-|
E-0-2---0-2---0-2---0-2---0-2---0-2---0-2-3-2---0-2---0-2---0-2--2---2-0----|

e---------------------------------------------------------------------------|
B---------------------------------------------------------------------------|
G---------------------------------------------------------------------------|
D---------4-------------5---------------------------------------------------|
A---------4-------------5-------------------3---2---------------------------|
E-0-2---0-2----2--2---0-3---0-2---0-2---0-2---------------------------------|

e---------------------------------------------------------------------------|
B-------------------------------------5-------------------------------------|
G-5--------------------------5----------------------------------------------|
D-5----------------5----------------------------5---------------------------|
A-5------------------------------------------------------------5------------|
E---------------------------------------------------------------------------|

e-----------------------------0--0-0-0----0--0-0-0--------------------------|
B-5---------------------------4--4-4-4----4--4-4--4-------------------------|
G-5-------------------------------------------------------------------------|
D-5-------------------------------------------------------------------------|
A-----------------------------------------------------------------------3-2-|
E---0-2--0-2----0-2-3-2-----------------------------0-2--0-2--0-2---0-2-----|

After the prt...."through the sy-stem out to the right. Said' ur in my light, uh."
e---------------------------------------------------------------------------|
B---------------------------------------------------------------------------|
G---------------------------------------------------------------------------|
D---------------------------------------------------------------------------|
A---------------------------------------------------------------------------|
E-0-2---0-2---0-2----0-2-3-2------------------------------------------------|

After prt..."Lockdown the generator on, man. Screw down the system use the main plan.
e--------------5--------------------5----------------------------5----------|
B-5------------5--------------------5----------------------------5----------|
G-5------------5--------------------5----------------------------5----------|
D-5------------5--------------------5----------------------------5----------|
A-5---------------------5---------------------5-----------------------------|
E---------------------------------------------------------------------------|

during prt....."Full power up to the point man. Don't F*** with me."
e-(5)-----------------------------------------------------------------------|
B-(5)-----------------------------------------------------------------------|
G-(5)-----------------------------------------------------------------------|
D-(5)-----------------------------------------------------------------------|
A---------------------------------------------------------------------------|
E----------------------0-2---0-2---0-2---0-2--3-2---------------------------|

Prt......."LO-CO, LO-CO, LO-CO........."
e--------------|
B--------------|
G-3---3-----3--|
D-4---4-----4--|
A-4---4-----4--|Repeat this whole piece x(4)
E-2---2-----2--|
Then:
prt loco mi loco mi loco
e----------------------|
B----------------------|
G-3----3-------3----3--|
D-4----4-------4----4--|
A-4----4-------4----4--|Repeat this whle pice x (4)
E-2----2-------2----2--|
Then this X(8)
e                                e---------|
B                                B---------|
G-2----2                         G-1-------|
D-3----3                         D-2-------|
A-3----3 then end prt with       A-2-------|
E-1----1                         E-0-------|

then prt after......"PULL!"
e-----------|
B-----------|
G-(1)-------|
D-(2)-------|
A-(2)-------|
E-(0)-------|

Sorry guys this is all I know but once I figure the rest I promise I'll keep you guys up
date but hope u like it and hopefully you enjoy it and stay (SIC)!!!!!!!
Otros videos de esta canción
    41 exhibiciones
      • ½ Tono
      • A
      • Bb
      • B
      • C
      • Db
      • D
      • Eb
      • E
      • F
      • F#
      • G
      • Ab
    • Agregar a la lista

    Afinação da cifra

    Afinador online

      Ops (: Contenido disponible solo en portugués.
      OK