Cifra Club

Loco

Coal Chamber

Cifrado: Principal (guitarra y guitarra eléctrica)
Selo Cifra Club: esta cifra foi revisada para atender aos critérios oficiais da nossa Equipe de Qualidade.
tono: A
Intro:

Solinho:
 E|------------------------------------------------------------------------|
 B|---0-----0-----0-----0-----0-------0-----0-----0-----0-----0------------|
 G|-4---4-4---4-4---4-4---4-4---4-4-3---3-3---3-3---3-3---3-3---3-3-4------|
 D|------------------------------------------------------------------------|
 A|------------------------------------------------------------------------|
 E|------------------------------------------------------------------------|
 


 E|-----|
 B|-----|
 G|-4---|
 D|-4---|Deixe soar
 A|-2---|
 E|-----|

  
  Essa parte a guitarra entra junto com a batera:
 E|---------------------------------------------------------|
 B|---------------------------------------------------------|
 G|---------------------------------------------------------|
 D|----9-9--9-10--9-9--9-9-10--7--9-9--9-10--9-9--9-9-------|(ABAFADO)
 A|----9-9--9-10--9-9--9-9-10--7--9-9--9-10--9-9--9-9--10--9|
 E|----7-7--7--8--7-7--7-7--8--5--7-7--7--8--7-7--7-7-------|

 Quando começar a cantar,pode tocar um B em Power Chords.
  

 
              
                             Refrão:
 E|----------------------------------------------------------------------
 B|----------------------------------------------------------------------
 G|----------------------------------------------------------------------
 D|-9-9--9-10-10--9-9--9-10-10--9-9--9-10-10--9-9--9-10-10--10-10--10----
 A|-9-9--9-10-10--9-9--9-10-10--9-9--9-10-10--9-9--9-10-10--10-10--10----
 E|-7-7--7--8--8--7-7--7--8--8--7-7--7--8--8--7-7--7--8--8---8--8---8----


 E|---------------------------------------------------------------|
 B|---------------------------------------------------------------|
 G|---------------------------------------------------------------|
 D|11-11--10-10--10--11-11--10-10--10--11-11--10-10--10--11---9---|
 A|11-11--10-10--10--11-11--10-10--10--11-11--10-10--10--11---9---|
 E|-9--9---8--8---8---9--9---8--8---8---9--9---8--8---8---9---7---|

 Depois do refrão repete tudo de novo.


 E|------------------|
 B|------------------|
 G|------------------|
 D|-9-10-9-7-9-10-9--|4x
 A|-9-10-9-7-9-10-9--|
 E|-7--8-7-5-7--8-7--|
  
  
   |----------3x-------|
 D|9-9-9-9--10-10-10-10--12-12-12-12--14-14-14-14--|

 Depois desse solinho,repete o solo do começo.
Otros videos de esta canción
    321 exhibiciones
      • ½ Tono
      • A
      • Bb
      • B
      • C
      • Db
      • D
      • Eb
      • E
      • F
      • F#
      • G
      • Ab
    • Agregar a la lista

    Afinação da cifra

    Afinador online

      Ops (: Contenido disponible solo en portugués.
      OK