Cifra Club

Shock The Monkey

Coal Chamber

Cifrado: Principal (guitarra y guitarra eléctrica)
Selo Cifra Club: esta cifra foi revisada para atender aos critérios oficiais da nossa Equipe de Qualidade.
tono: D
TUNING: drop "a" on seven string guitar (A,E,A,D,G,B,E)

     INTRO/VERSE:

     This is played on guitar one

    E|--------------------------------------------------------|
    B|----------------------------------------------------13--|
    G|--12--12----15----12--12--12--15--15--12--12----15------|
    D|--13--------15----13--------------15--13--------15------|
    A|--------------------------------------------------------|
    E|--------------------------------------------------------|
    A|--------------------------------------------------------|

     This is played on guitar two

    E|--------------------------------------------------------|
    B|--------------------------------------------------------|
    G|--------------------------------------------------------|
    D|---------------------------------  rest ----------------|
    A|--3--3----/6----5--3------------------------------------|
    E|--3--3----/6----5--3------------------------------------|
    A|--3--3----/6----5--3------------------------------------|

     PRE CHORUS: ("monkey")

    E|-----------------|
    B|-----------------|
    G|-----------------|
    D|-----------------|
    A|--5--------------|
    E|--5-- let ring --|
    A|--5--------------|

     CHORUS:

     This is played on guitar one

    E|--------------------------------------------------------|
    B|----------------------------------------------------13--|
    G|--12--12----15----12--12--12--15--15--12--12----15------|
    D|--13--------15----13--------------15--13--------15------|
    A|--------------------------------------------------------|
    E|--------------------------------------------------------|
    A|--------------------------------------------------------|

     This is played on guitar two

    E|--------------------------------------------------------|
    B|--------------------------------------------------------|
    G|--------------------------------------------------------|
    D|---------------------------------  rest ----------------|
    A|--3--3----/6----5--3------------------------------------|
    E|--3--3----/6----5--3------------------------------------|
    A|--3--3----/6----5--3------------------------------------|

     BRIDGE PART A:

    E|--------------------------------------------------------|
    B|--------------------------------------------------------|
    G|--------------------------------------------------------|
    D|--------------------------------------------------------|
    A|--5--------------5--5--5--5----5--5--5--3---------------|
    E|--5-- let ring --5--5--5--5----5--5--5--3-- let ring ---|
    A|--5--------------5--5--5--5----5--5--5--3---------------|

     BRIDGE PART B:

    E|--------------------------------|
    B|--------------------------------|
    G|--------------------------------|
    D|--------------------------------|
    A|--1--------1--------1--------1--|
    E|--1--------1--------1--------1--|
    A|--1--------1--------1--------1--|

     OUTRO:

     guitar one

    E|---------------------------------------------------------------|
    B|-----------------8----8-----11---------------------------------|
    G|--8------10----------------------------------------------------|
    D|---------------------------------------- rest -----------------|
    A|---------------------------------------------------------------|
    E|---------------------------------------------------------------|
    A|---------------------------------------------------------------|

     guitar two

    E|---------------------------------------------------------------|
    B|---------------------------------------------------------------|
    G|---------------------------------------------------------------|
    D|---------------------------------------------------------------|
    A|--6-------------------5----------------1------1------1------1--|
    E|--6-------------------5----------------1------1------1------1--|
    A|--6-------------------5----------------1------1------1------1--|
Otros videos de esta canción
    72 exhibiciones
      • ½ Tono
      • A
      • Bb
      • B
      • C
      • Db
      • D
      • Eb
      • E
      • F
      • F#
      • G
      • Ab
    • Agregar a la lista

    Afinação da cifra

    Afinador online

      Ops (: Contenido disponible solo en portugués.
      OK