Cifra Club

Something Told Me

Coal Chamber

Cifrado: Principal (guitarra y guitarra eléctrica)
Selo Cifra Club: esta cifra foi revisada para atender aos critérios oficiais da nossa Equipe de Qualidade.
tono: D
DROP IN  A
IN GUITAR OF  7 STRINGS

riff 1 :

e|------------------------
b------------------------
g------------------------
d------------------------
a-12-H-13--0-00--00-00---
e|-12-h-13--0-00--00-00---
a-12-H-13--0-00--00-00---
         
FILL 1 :

e|---------
b---------
g---------
d---------
A|---5--3--
E|---5--3--
A|---5--3--

RIFF 2 :

E|------------------------
B|------------------------
G|------------------------
D|------------------------
A|--22--22--22--22-3~~----
E|--22--22--22--22-3~~----
A|--22--22--22--22-3~~----
      
RIFF 3 :

E|----------------------
B|----------------------
G|----------------------
D|----------------------
A|--0-H-1----00--00-00--
E|--0-H-1----00--00-00--
A|--0-H-1----00--00-00--
         PM-----------

VERSE :

E|-------------------------
B|-------------------------
G|-------------------------
D|-------------------------
A-0-010-01-0-000-00--12 13
e|-0-010-01-0-000-00--12 13
A-0-010-01-0-000-00--12 13
PM------------

FILL 2 :

E|---------------------
B|---------------------
G|---------------------
D|---------------------
A|--0-1--0-1-----------
E|--0-1--0-1-----------
A|--0-1--0-1-----------

BRIDGE :

E|-------------------------
B|-------------------------
G|-------------------------
D|-------------------------
A|-XX-XX-XX----------------
E|-11-11-11----------------
A|-11-11-11--01 01---------
XXXXXXXXXX--FLANGER

E|--------------------------------------
B|--------------------------------------
G|--------------------------------------
D|-XXXXXXXXXXXXXXXXXXXXXXXX-------------
A|--101010-111111-131313-141414-17------
E|----------------XXXXXXXXXXXXX-15-20-21
AXXXXXXXXXXXXXXXXXXXXXXXXXXXXX----20-21

END :

RIFF 2

E|-------
B|-------
G|-------
D|-------
A|--22---
E|--22---
A|--22---
Otros videos de esta canción
    57 exhibiciones
      • ½ Tono
      • A
      • Bb
      • B
      • C
      • Db
      • D
      • Eb
      • E
      • F
      • F#
      • G
      • Ab
    • Agregar a la lista

    Afinação da cifra

    Afinador online

      Ops (: Contenido disponible solo en portugués.
      OK