Cifra Club

Sway

Coal Chamber

Cifrado: Principal (guitarra y guitarra eléctrica)
Selo Cifra Club: esta cifra foi revisada para atender aos critérios oficiais da nossa Equipe de Qualidade.
tono: Ab
     (RIFF 1) 
 E|----------------------------------|
 B|---0---0---0---0---0---0---0---0--|
 G|--3---3---3---3---3---3---3---3---|
 D|----------------------------------|(1x)
 A|----------------------------------|
 D|----------------------------------|

     (RIFF 2)
 E|---------------------------------|
 B|---------------------------------|
 G|---------------------------------|
 D|---------------------------------|toque o riff 2 umas 20 vezes.
 A|-3-0-3-0-3-4---------------------|
 D|-3-0-3-0-3-4---------------------|
    

     (RIFF 3)
 E|---------------------------------|
 B|---------------------------------|
 G|---------------------------------|
 D|---------------------------------|(8x)
 A|-0h1-0h1-0h1-0h1-0-0h1-----------|
 D|-0h1-0h1-0h1-0h1-0-0h1-----------|

 
 REFRão
      (RIFF 4)
 E|---------------------------------|
 B|---------------------------------|
 G|---------------------------------|
 D|---------------------------------|(8x)
 A|-0-3-0-0-0-----------------------|
 D|-0-3-0-0-0-----------------------|

    
     (RIFF 5)
 E|---------------|
 B|--0--0---------|
 G|-3--3----------|(1x)
 D|---------------|
 A|---------------|
 D|---------------|

     (RIFF 3)
 E|---------------------------------|
 B|---------------------------------|
 G|---------------------------------|
 D|---------------------------------|(8x)
 A|-0h1-0h1-0h1-0h1-0-0h1-----------|
 D|-0h1-0h1-0h1-0h1-0-0h1-----------|


  REFRão
      (RIFF 4)
 E|---------------------------------|
 B|---------------------------------|
 G|---------------------------------|
 D|---------------------------------|(8x)
 A|-0-3-0-0-0-----------------------|
 D|-0-3-0-0-0-----------------------|

       (RIFF 5)
 E|---------------|
 B|--0--0---------|
 G|-3--3----------|
 D|---------------|(1x)
 A|---------------|
 D|---------------|

       (RIFF 3)
 E|---------------------------------|
 B|---------------------------------|
 G|---------------------------------|
 D|---------------------------------|(4x)
 A|-0h1-0h1-0h1-0h1-0-0h1-----------|
 D|-0h1-0h1-0h1-0h1-0-0h1-----------|

    (RIFF 6)
 E|----------------|
 B|----------------|
 G|----------------|8x
 D|-----4h5--------|
 A|----------------|
 D|-6-5------------|

    (RIFF 7)
 E|---------------------------------|
 B|---------------------------------|
 G|---------------------------------|
 D|---------------------------------|(1x)
 A|--4-7-4-3-0-3-4-7-4-(3)----------|
 D|--4-7-4-3-0-3-4-7-4-(3)----------|

    (RIFF 3)
 E|---------------------------------|
 B|---------------------------------|
 G|---------------------------------|
 D|---------------------------------|(8x)
 A|-0h1-0h1-0h1-0h1-0-0h1-----------|
 D|-0h1-0h1-0h1-0h1-0-0h1-----------|


   REFRão
      (RIFF 4)
 E|---------------------------------|
 B|---------------------------------|
 G|---------------------------------|
 D|---------------------------------|(8x)
 A|-0-3-0-0-0-----------------------|
 D|-0-3-0-0-0-----------------------|


      (RIFF 2)
 E|---------------------------------|
 B|---------------------------------|
 G|---------------------------------|
 D|---------------------------------|(toque o riff 2 umas 16 vezes até acabar)
 A|-3-0-3-0-3-4---------------------|
 D|-3-0-3-0-3-4---------------------|

  

Riff 1= 1x
Riff 2= 20x
Riff 3= 8x
Riff 4= 8x(refrão)
Riff 5= 1x
Riff 3= 8x
Riff 4= 8x(refrão)
Riff 5= 1x
Riff 3= 4x
Riff 6= 8x
Riff 7= 1x
Riff 3= 8x
Riff 4= 8x(refrão)
Riff 2= 16x
Otros videos de esta canción
    69 exhibiciones
      • ½ Tono
      • A
      • Bb
      • B
      • C
      • Db
      • D
      • Eb
      • E
      • F
      • F#
      • G
      • Ab
    • Agregar a la lista

    Afinação da cifra

    Afinador online

      Ops (: Contenido disponible solo en portugués.
      OK