Cifra Club

Estampita

Coiffeur

Chords: Principal (acoustic and electric guitars)
tone: B
    B                                 F#7/B
E|----2-----------| |        e----2-----------||
B|--------4-------| |        B--------5-------||
G|------------4---| | x4     G------------3---|| x4
D|------4---4-----| |        D------4---4-----||
A|--2-------------| |        A--2-------------||
E|----------------| |        E----------------||

B                F#7/B
    La camisa se manchó,
B                 F#7/B
    me miraste con complicidad.
B               F#7/B         B
    Nos hicimos los distraídos,
(B)              F#7/B
    como si nada hubiera sucedido.

B             F#7/B                  B
    Sonreíste,  con la mirada perdida y
(B)                    F#7/B           B
    yo te saqué una foto en mi cabeza.
(B)
Sé que va a ser
F#7/B                    B
estampita en mi santuario.
(B)
Sé que va a ser
F#7/B                    B
estampita en mi santuario.

Interludio:
B - F#7/B


Acorde Final

    Bsus2
E|----2-----------| |
B|--------2-------| |
G|------------4---| | x4
D|------4---4-----| |
A|--2-------------| |
E|----------------| |
00:00 / 00:00
Other videos of this song
Repeat
Other videos of this song
20 views
    • ½ Tone
    • A
    • Bb
    • B
    • C
    • Db
    • D
    • Eb
    • E
    • F
    • F#
    • G
    • Ab
  • Add to list

Afinação da cifra

Afinador online

    00:00 / 00:00
    OK