Cifra Club

Espírito de Porco

Coke Luxe

Cifrado: Principal (guitarra y guitarra eléctrica)
tono: A
[Intro] A  D  A  E  D  A

  A                             D              A  
E|-----------------------------------------------------------|
B|-----------------------------------------------------------|  
G|------------------------------------2-2-4-2----------------|  
D|-------2-2-4-2-------2-2-4-2--0-4-4----------------2-2-4-2-| 
A|-0-4-4---------0-4-4-------------------------0-4-4---------| 
E|-----------------------------------------------------------|

  E            D  A
E|--------------------------------|
B|--------------------------------|
G|--------------------------------|
D|----------------------2-2-4-2-2-|
A|-------2-2-4-5--0-4-4-----------|
E|-0-4-4--------------------------|

A                     A
Hoje ele tá na maior, vou bagunçar o coreto
D                            A
Hoje ele tá na melhor, vou encher a paciência dos nêgo
  E                   D                 A
Espírito de porco que sou, vou perturbar

   A
Se alguém tiver tentando um papinho legal
A
Chego na roda e as coisas vão mal
   D
Porque a alegria é coisa que me irrita
   A
Se cuida garoto se não teremos briga

E             D
Sou uma zica, sou mesmo chato
A                     E
Agito quebrar o barato

A
Ele é uma zica, é mesmo chato
A
O seu agito é quebrar o barato
D
Ele é uma zica, é mesmo chato
A
O seu agito é quebrar o barato

E             D
Sou uma zica, sou mesmo chato
A                     E
Agito quebrar o barato

[Solo] A  D  A  E  D  A 
       A  D  A  E  D  A 

A                     A
Hoje ele tá na maior, vou bagunçar o coreto
D                            A
Hoje ele tá na melhor, vou encher a paciência dos nêgo
  E                   D                 A
Espírito de porco que sou, vou perturbar

   A
Se alguém tiver tentando um papinho legal
A
Chego na roda e as coisas vão mal
   D
Porque a alegria é coisa que me irrita
   A
Se cuida garoto se não teremos briga

E             D
Sou uma zica, sou mesmo chato
A                     E
Agito quebrar o barato

A
Ele é uma zica, é mesmo chato
A
O seu agito é quebrar o barato
D
Ele é uma zica, é mesmo chato
A
O seu agito é quebrar o barato

E             D
Sou uma zica, sou mesmo chato
A                     E
Agito quebrar o barato
00:00 / 00:00
Otros videos de esta canción
Repetir
Otros videos de esta canción
Composición de Coke Luxe
Colaboración y revisión:
  • Léo Tobia
10 exhibiciones
    • ½ Tono
    • A
    • Bb
    • B
    • C
    • Db
    • D
    • Eb
    • E
    • F
    • F#
    • G
    • Ab
  • Agregar a la lista
    00:00 / 00:00
    OK