Cifra Club

Bubbly

Colbie Caillat

Cifrado: Principal (guitarra y guitarra eléctrica)
Selo Cifra Club: esta cifra foi revisada para atender aos critérios oficiais da nossa Equipe de Qualidade.
tono: A (con acordes en la forma de D) Capotraste en 7ª casa
Afinação D aberto: D A D F# A D

Primeira parte:
   A     E11/G# D/F#  A
E|-----------------------------------------|
B|-5-5---4-4----2-2---5-5------------------|
G|-0-0---3-3----0-0---0-0------------------|
D|-4-4---0-0----1-1---4-4------------------|
A|-5-5---4-4----2-2---5-5------------------|
E|-----------------------------------------|

   A     E11/G# D/F#  A
E|-----------------------------------------|
B|-5-5---4-4----2-2---5--------------------|
G|-0-0---3-3----0-0---0--------------------|
D|-4-4---0-0----1-1---4--------------------|
A|-5-5---4-4----2-2---5--------------------|
E|-----------------------------------------|

( A E11/G# D/F# A )
( A E11/G# )

 D/F#                 A
Will you count me in?

A                          E11/G#
  I've been awake for a while now
D/F#                             A
  You've got me feeling like a child now
A                               E11/G#
  'Cause every time I see your bubbly face
D/F#                      A
  I get the tingles in a silly place

Refrão:
   A5
E|----------0------------------------------|
B|----------0------------------------------|
G|-----3----3--3-----3---------------------|
D|---0------x--0-----0---------------------|
A|-5-----5--x-----5------------------------|
E|-----------------------------------------|

   E11/G#
E|----------0------------------------------|
B|----------0------------------------------|
G|-----3----3--3-----3---------------------|
D|---0------x--0-----0---------------------|
A|-4-----4--x-----4------------------------|
E|-----------------------------------------|

   D9/F#
E|-----------0-----------------------------|
B|-----------0-----------------------------|
G|-----3-----3--3-----3--------------------|
D|---0-------x--0-----0--------------------|
A|-2------2--x-----2-----------------------|
E|-----------------------------------------|

   A5/E
E|-----------0-----------------------------|
B|-----------0-----------------------------|
G|-----3-----3--3-----0--------------------|
D|---0-------x--0-----0--------------------|
A|-0------0--x-----0-----------------------|
E|-----------------------------------------|

                 A5
It starts in my toes
                  E11/G#
And I crinkle my nose
             D9/F#
Wherever it goes
           A5/E
I always know
                   A5
That you make me smile
                    E11/G#
Please stay for a while now
                D9/F#
Just take your time
              A5/E
Wherever you go

(Repete a primeira parte)

A                            E11/G#
  The rain is falling on my window pane
D/F#                      A
  But we are hiding in a safer place
A                        E11/G#
  Under covers staying dry and warm
D/F#                            A
  You give me feelings that I adore

(Repete o refrão)

Segunda Parte:
C#m6-          D9
  What am I gonna say
E11                           Bm7(11) C#m6-
  When you make me feel this way
       D9
I just...mmmmmmm

(Repete o refrão)
(Repetições da primeira parte e refrão)

( A E11/G# D/F# A )

A                          E11/G#
  I've been asleep for a while now
D/F#                             A
  You tucked me in just like a child now
A                               E11/G#
  'Cause every time you hold me in your arms
D/F#                         A
  I'm comfortable enough to feel your warmth

                 A5
It starts in my soul
                    E11/G#
And I lose all control
                  D9/F#
When you kiss my nose
              A5/E
The feeling shows
                     A5
'Cause you make me smile
                     E11/G#
Baby just take your time now
            D9/F#   A5/E
Holding me tight...

Parte final:

    A
E|---------4-------------------------------|
B|-----------5-----------------------------|
G|-----0--------0--------------------------|
D|---0---0--------0------------------------|
A|-5---------------------------------------|
E|-----------------------------------------|

   C#m6-/G#
E|---------4-------------------------------|
B|-----------4-----------------------------|
G|-----3-------3---------------------------|
D|---0---0-------0-------------------------|
A|-4---------------------------------------|
E|-----------------------------------------|

   Bm7/F#
E|---------2-------------------------------|
B|-----------2-----------------------------|
G|-----1-------1---------------------------|
D|---0---0-------0-------------------------|
A|-2---------------------------------------|
E|-----------------------------------------|

   A
E|---------0-------------------------------|
B|-----------0-----------------------------|
G|-----0-------0---------------------------|
D|---0---0-------0-------------------------|
A|-0---------------------------------------|
E|-----------------------------------------|

   A
E|------------0----------------------------|
B|------------0----------------------------|
G|-----0------0----------------------------|
D|---0---0----0----------------------------|
A|-0----------0----------------------------|
E|-----------------------------------------|

    A           C#m6-/G#
Wherever... wherever...
    Bm7/F#    A
Wherever you go
    A           C#m6-/G#
Wherever... wherever...
    Bm7/F#    A
Wherever you go

A        C#m6-/G#
Uh...Wherever you go
Bm7/F#     A
  Always know
A                      C#m6-/G#
  'Cause you make me smile
                  Bm7/F#  A
Even just for a while
Otros videos de esta canción
    947.804 exhibiciones
    • Simplificar cifrado
      • ½ Tono
      • A
      • Bb
      • B
      • C
      • Db
      • D
      • Eb
      • E
      • F
      • F#
      • G
      • Ab
    • Agregar a la lista

    Afinación de cifrado

    Afinador online

      Capítulos
      • Início
      • Afinação
      • Dicas Iniciais
      • Tocando música
      • Acordes da Primeira Parte
      • Nomenclatura dos acordes
      • Tocando Primeira Parte
      • Ensinando Primeira Parte
      • Acordes do Refrão
      • Tocando Refrão
      • Ensinando Refrão
      • Acordes da Segunda Parte
      • Tocando Segunda Parte
      • Acordes do Final
      • Tocando Final
      • Ensinando Final
      • Encerramento
      OK