Cifra Club

A Different Kind Of Pain

Cold

Chords: Principal (acoustic and electric guitars)
tone: E
afine o bordão em C#
Intro/Verse (Play this 3x)
e|---------------------------------------------------------------------------|
B|---------------------------------------------------------------------------|
G|-------3---------4-3----3--------4--------3---------------3----------------|
D|-----4---4--6-4-------4---4--6-4--------4---4-6-4-3-4---4---4-6-4-3-4------|
A|---------------------------------------------------------------------------|
E|---5----------------4--------------4-5-2--------------0---------------5----|

Intro/Verse cont'd (immediately following third follow through, play 2x)
e|---x-x-x-x---2-2-2-2---4-4-4-4---0-0-0-0-----------------------------------|
B|---7-7-7-7---2-2-2-2---4-4-4-4---0-0-0-0-----------------------------------|
G|---8-8-8-8---3-3-3-3---4-4-4-4---1-1-1-1-----------------------------------|
D|---9-9-9-9---4-4-4-4---6-6-6-6---2-2-2-2-----------------------------------|
A|---9-9-9-9---4-4-4-4---6-6-6-6---2-2-2-2-----------------------------------|
E|---x-x-x-x---x-x-x-x---x-x-x-x---x-x-x-x-----------------------------------|

Chorus w/ distortion (listen to the song for strumming pattern)
e|---------------------------------------------------------------------------|
B|---------------------------------------------------------------------------|
G|---------6-----8-----4-----------------------------------------------------|
D|---4-----6-----8-----4-----------------------------------------------------|
A|---4-----4-----6-----2-----------------------------------------------------|
E|---------------------------------------------------------------------------|

Bridge
e|----------------|
B|---------4------|
G|---------4------|
D|---6-----2------|
A|---6------------|
E|---4------------|

Outro/Chorus (play the normal chorus 1x, followed by this 3x)
e|---------------------------------------------------------------------------|
B|---------------------------------------------------------------------------|
G|---------6-----8-----7-----8-----------------------------------------------|
D|---4-----6-----8-----7-----8-----------------------------------------------|
A|---4-----4-----6-----5-----6-----------------------------------------------|
E|---------------------------------------------------------------------------|
00:00 / 00:00
Other videos of this song
Repeat
Other videos of this song
Composed by Sam McCandless / Scooter Ward
Collaboration and Review:
  • michael campos
64 views
    • ½ Tone
    • A
    • Bb
    • B
    • C
    • Db
    • D
    • Eb
    • E
    • F
    • F#
    • G
    • Ab
  • Add to list
    00:00 / 00:00
    OK