Cifra Club

Serial Killer

Cold

Cifrado: Principal (guitarra y guitarra eléctrica)
Selo Cifra Club: esta cifra foi revisada para atender aos critérios oficiais da nossa Equipe de Qualidade.
tono: Dm
Intro

E|-------------------------|--------------------------------|
B|-------------------------|--------------------------------|
G|-------------------------|--------------------------------|
D|-12h14-14-14-12h14-14-14-|-12h14p12------14^-------14^r---|
A|-12----------12----------|-12--------13--------12---------|
E|-------------------------|--------------------------------|

E|-------------------------|--------------------------------|
B|-------------------------|--------------------------------|
G|-------------------------|--------------------------------|
D|-12h14-14-14-12h14-14-14-|-12h14p12------14^-------14^r---|
A|-12----------12----------|-12--------13--------12---------|
E|-------------------------|--------------------------------|

Gtr 1
E|-------------------------|--------------------------------|
B|-------------------------|--------------------------------|
G|-------------------------|--------------------------------|
D|-12h14-14-14-12h14-14-14-|-12h14p12------14^-------14^r---|
A|-12----------12----------|-12--------13--------12---------|
E|-------------------------|--------------------------------|

Gtr 2
E|-------------------------|--------------------------------|
B|-10h12-12-12-10h12-12-12-|-10h12p10-----------------------|
G|-------------------------|-------------8^--------7^-------|
D|-------------------------|--------------------------------|
A|-------------------------|--------------------------------|
E|-------------------------|--------------------------------|


Gtr 1
E|-------------------------|--------------------------------|
B|-------------------------|--------------------------------|
G|-------------------------|--------------------------------|
D|-12h14-14-14-12h14-14-14-|-12h14p12------14^-------14^r---|
A|-12----------12----------|-12--------13--------12---------|
E|-------------------------|--------------------------------|

Gtr 2
E|-------------------------|--------------------------------|
B|-10h12-12-12-10h12-12-12-|-10h12p10-----------------------|
G|-------------------------|-------------8^--------7^-------|
D|-------------------------|--------------------------------|
A|-------------------------|--------------------------------|
E|-------------------------|--------------------------------|


Verse 1
"I can see the bodies on the wall"
E|-------------------------|--------------------------------|
B|-10h12-12-12-10h12-12-12-|-10h12p10---------12--------12^-|
G|-------------------------|-------------8^--------7^-------|
D|-------------------------|--------------------------------|
A|-------------------------|--------------------------------|
E|-------------------------|--------------------------------|

E|-------------------------|--------------------------------|
B|-10h12-12-12-10h12-12-12-|-10h12p10---------12--------12^-|
G|-------------------------|-------------8^--------7^-------|
D|-------------------------|--------------------------------|
A|-------------------------|--------------------------------|
E|-------------------------|--------------------------------|

Chorus 1
Gtr 1
E|-------------------------------------------------------------------------------------------------|
B|-------------------------------------------------------------------------------------------------|
G|-------------------------------------------------------------------------------------------------|
D|--5---5--5--5-5-5-5-5--4---4--4--4-4-4-4-4-------------------------------------------------------|
A|--3---3--3--3-3-3-3-3--2---2--2--2-2-2-2-2-/7--7-7--/7--7-7--7-7-7-7--/7--7-7--/7--7-7--7-7-7-7--|
E|-------------------------------------------/5--5-5--/5--5-5--5-5-5-5--/5--5-5--/5--5-5--5-5-5-5--|

Gtr 2
E|--------------10-------------------10------------------------10-----------------------------10---|
B|--13-------------------12------------------10-----------------------------10---------------------|
G|-------------------------------------------------------------------------------------------------|
D|-------------------------------------------------------------------------------------------------|
A|-------------------------------------------------------------------------------------------------|
E|-------------------------------------------------------------------------------------------------|


Gtr 1
E|-------------------------------------------------------------------------------------------------|
B|-------------------------------------------------------------------------------------------------|
G|-------------------------------------------------------------------------------------------------|
D|--5---5--5--5-5-5-5-5--4---4--4--4-4-4-4-4-------------------------------------------------------|
A|--3---3--3--3-3-3-3-3--2---2--2--2-2-2-2-2-/7--7-7--/7--7-7--7-7-7-7--/7--7-7--/7--7-7--7-7-7-7--|
E|-------------------------------------------/5--5-5--/5--5-5--5-5-5-5--/5--5-5--/5--5-5--5-5-5-5--|


Gtr 2
E|--------------10-------------------10------------------------10-----------------------------10---|
B|--13-------------------12------------------10-----------------------------10---------------------|
G|-------------------------------------------------------------------------------------------------|
D|-------------------------------------------------------------------------------------------------|
A|-------------------------------------------------------------------------------------------------|
E|-------------------------------------------------------------------------------------------------|


Gtr 1
E|-------------------------------------------------------------------------------------------------|
B|-------------------------------------------------------------------------------------------------|
G|-------------------------------------------------------------------------------------------------|
D|--5---5--5--5-5-5-5-5--4---4--4--4-4-4-4-4-------------------------------------------------------|
A|--3---3--3--3-3-3-3-3--2---2--2--2-2-2-2-2-/7--7-7--/7--7-7--7-7-7-7--/7--7-7--/7--7-7--7-7-7-7--|
E|-------------------------------------------/5--5-5--/5--5-5--5-5-5-5--/5--5-5--/5--5-5--5-5-5-5--|


Gtr 2
E|--------------10-------------------10------------------------10-----------------------------10---|
B|--13-------------------12------------------10-----------------------------10---------------------|
G|-------------------------------------------------------------------------------------------------|
D|-------------------------------------------------------------------------------------------------|
A|-------------------------------------------------------------------------------------------------|
E|-------------------------------------------------------------------------------------------------|


Gtr 1
E|-------------------------------------------------------------------------------------------------|
B|-------------------------------------------------------------------------------------------------|
G|-------------------------------------------------------------------------------------------------|
D|--5---5--5--5-5-5-5-5--4---4--4--4-4-4-4-4-------------------------------------------------------|
A|--3---3--3--3-3-3-3-3--2---2--2--2-2-2-2-2-/7--7-7--/7--7-7--7-7-7-7--/7--7-7--/7--7-7--7-7-7-7--|
E|-------------------------------------------/5--5-5--/5--5-5--5-5-5-5--/5--5-5--/5--5-5--5-5-5-5--|

Gtr 2
E|--------------10-------------------10------------------------10-----------------------------10---|
B|--13-------------------12------------------10-----------------------------10---------------------|
G|-------------------------------------------------------------------------------------------------|
D|-------------------------------------------------------------------------------------------------|
A|-------------------------------------------------------------------------------------------------|
E|-------------------------------------------------------------------------------------------------|

Gtr 1
E|-------------------------|--------------------------------|
B|-------------------------|--------------------------------|
G|-------------------------|--------------------------------|
D|-12h14-14-14-12h14-14-14-|-12h14p12------14^-------14^r---|
A|-12----------12----------|-12--------13--------12---------|
E|-------------------------|--------------------------------|

Gtr 2
E|-------------------------|--------------------------------|
B|-10h12-12-12-10h12-12-12-|-10h12p10-----------------------|
G|-------------------------|-------------8^--------7^-------|
D|-------------------------|--------------------------------|
A|-------------------------|--------------------------------|
E|-------------------------|--------------------------------|


Gtr 1
E|-------------------------|--------------------------------|
B|-------------------------|--------------------------------|
G|-------------------------|--------------------------------|
D|-12h14-14-14-12h14-14-14-|-12h14p12------14^-------14^r---|
A|-12----------12----------|-12--------13--------12---------|
E|-------------------------|--------------------------------|

Gtr 2
E|-------------------------|--------------------------------|
B|-10h12-12-12-10h12-12-12-|-10h12p10-----------------------|
G|-------------------------|-------------8^--------7^-------|
D|-------------------------|--------------------------------|
A|-------------------------|--------------------------------|
E|-------------------------|--------------------------------|Verse 2
"I can see the knives hung on the wall
pm..........................................................
E|-------------------------|--------------------------------|
B|-10h12-12-12-10h12-12-12-|-10h12p10-----------------------|
G|-------------------------|-------------8^--------7^-------|
D|-------------------------|--------------------------------|
A|-------------------------|--------------------------------|
E|-------------------------|--------------------------------|

pm..........................................................
E|-------------------------|--------------------------------|
B|-10h12-12-12-10h12-12-12-|-10h12p10-----------------------|
G|-------------------------|-------------8^--------7^-------|
D|-------------------------|--------------------------------|
A|-------------------------|--------------------------------|
E|-------------------------|--------------------------------|


Chorus 2

E|-------------------------------------------------------------------------------------------------|
B|-------------------------------------------------------------------------------------------------|
G|-------------------------------------------------------------------------------------------------|
D|--5---5--5--5-5-5-5-5--4---4--4--4-4-4-4-4-------------------------------------------------------|
A|--3---3--3--3-3-3-3-3--2---2--2--2-2-2-2-2-/7--7-7--/7--7-7--7-7-7-7--/7--7-7--/7--7-7--7-7-7-7--|
E|-------------------------------------------/5--5-5--/5--5-5--5-5-5-5--/5--5-5--/5--5-5--5-5-5-5--|

Gtr 2
E|--------------10-------------------10------------------------10-----------------------------10---|
B|--13-------------------12------------------10-----------------------------10---------------------|
G|-------------------------------------------------------------------------------------------------|
D|-------------------------------------------------------------------------------------------------|
A|-------------------------------------------------------------------------------------------------|
E|-------------------------------------------------------------------------------------------------|


Gtr 1
E|-------------------------------------------------------------------------------------------------|
B|-------------------------------------------------------------------------------------------------|
G|-------------------------------------------------------------------------------------------------|
D|--5---5--5--5-5-5-5-5--4---4--4--4-4-4-4-4-------------------------------------------------------|
A|--3---3--3--3-3-3-3-3--2---2--2--2-2-2-2-2-/7--7-7--/7--7-7--7-7-7-7--/7--7-7--/7--7-7--7-7-7-7--|
E|-------------------------------------------/5--5-5--/5--5-5--5-5-5-5--/5--5-5--/5--5-5--5-5-5-5--|

Gtr 2
E|--------------10-------------------10------------------------10-----------------------------10---|
B|--13-------------------12------------------10-----------------------------10---------------------|
G|-------------------------------------------------------------------------------------------------|
D|-------------------------------------------------------------------------------------------------|
A|-------------------------------------------------------------------------------------------------|
E|-------------------------------------------------------------------------------------------------|


Gtr 1
E|-------------------------------------------------------------------------------------------------|
B|-------------------------------------------------------------------------------------------------|
G|-------------------------------------------------------------------------------------------------|
D|--5---5--5--5-5-5-5-5--4---4--4--4-4-4-4-4-------------------------------------------------------|
A|--3---3--3--3-3-3-3-3--2---2--2--2-2-2-2-2-/7--7-7--/7--7-7--7-7-7-7--/7--7-7--/7--7-7--7-7-7-7--|
E|-------------------------------------------/5--5-5--/5--5-5--5-5-5-5--/5--5-5--/5--5-5--5-5-5-5--|

Gtr 2
E|--------------10-------------------10------------------------10-----------------------------10---|
B|--13-------------------12------------------10-----------------------------10---------------------|
G|-------------------------------------------------------------------------------------------------|
D|-------------------------------------------------------------------------------------------------|
A|-------------------------------------------------------------------------------------------------|
E|-------------------------------------------------------------------------------------------------|


Gtr 1
E|-------------------------------------------------------------------------------------------------|
B|-------------------------------------------------------------------------------------------------|
G|-------------------------------------------------------------------------------------------------|
D|--5---5--5--5-5-5-5-5--4---4--4--4-4-4-4-4-------------------------------------------------------|
A|--3---3--3--3-3-3-3-3--2---2--2--2-2-2-2-2-/7--7-7--/7--7-7--7-7-7-7--/7--7-7--/7--7-7--7-7-7-7--|
E|-------------------------------------------/5--5-5--/5--5-5--5-5-5-5--/5--5-5--/5--5-5--5-5-5-5--|

Gtr 2
E|--------------10-------------------10------------------------10-----------------------------10---|
B|--13-------------------12------------------10-----------------------------10---------------------|
G|-------------------------------------------------------------------------------------------------|
D|-------------------------------------------------------------------------------------------------|
A|-------------------------------------------------------------------------------------------------|
E|-------------------------------------------------------------------------------------------------|

Gtr 1
E|-------------------------|--------------------------------|
B|-------------------------|--------------------------------|
G|-------------------------|--------------------------------|
D|-12h14-14-14-12h14-14-14-|-12h14p12------14^-------14^r---|
A|-12----------12----------|-12--------13--------12---------|
E|-------------------------|--------------------------------|

Gtr 2
E|-------------------------|--------------------------------|
B|-10h12-12-12-10h12-12-12-|-10h12p10----17~----------------|
G|-------------------------|--------------------------------|
D|-------------------------|--------------------------------|
A|-------------------------|--------------------------------|
E|-------------------------|--------------------------------|


Gtr 1
E|-------------------------|--------------------------------|
B|-------------------------|--------------------------------|
G|-------------------------|--------------------------------|
D|-12h14-14-14-12h14-14-14-|-12h14p12------14^-------14^r---|
A|-12----------12----------|-12--------13--------12---------|
E|-------------------------|--------------------------------|

Gtr 2
E|-------------------------|--------------------------------|
B|-10h12-12-12-10h12-12-12-|-10h12p10----17~----------------|
G|-------------------------|--------------------------------|
D|-------------------------|--------------------------------|
A|-------------------------|--------------------------------|
E|-------------------------|--------------------------------|

Bridge

E|---------------------------------|
B|---------------------------------|
G|--10~---------12~---------9~-----|
D|---------------------------------|
A|---------------------------------|
E|---------------------------------|

E|---------------------------------|
B|---------------------------------|
G|--10~---------12~---------9~-----|
D|---------------------------------|
A|---------------------------------|
E|---------------------------------|

E|---------------------------------|
B|---------------------------------|
G|--10~---------12~---------9~-----|
D|------------------------------x\-| pick scrapes from pick up
A|------------------------------x\-|
E|------------------------------x\-|

E|---------------------------------|
B|---------------------------------|
G|--10~---------12~---------9~-----|
D|------------------------------x--| more pick scrapes
A|------------------------------x--|
E|------------------------------x--|

E|---------------------------------|
B|----------12---14-----15---------|
G|--10~----------------------------|
D|---------------------------------|
A|---------------------------------|
E|---------------------------------|


Chorus 3

Gtr 1
E|-------------------------------------------------------------------------------------------------|
B|-------------------------------------------------------------------------------------------------|
G|-------------------------------------------------------------------------------------------------|
D|--5---5--5--5-5-5-5-5--4---4--4--4-4-4-4-4-------------------------------------------------------|
A|--3---3--3--3-3-3-3-3--2---2--2--2-2-2-2-2-/7--7-7--/7--7-7--7-7-7-7--/7--7-7--/7--7-7--7-7-7-7--|
E|-------------------------------------------/5--5-5--/5--5-5--5-5-5-5--/5--5-5--/5--5-5--5-5-5-5--|

Gtr 2
E|--------------10-------------------10------------------------10-----------------------------10---|
B|--13-------------------12------------------10-----------------------------10---------------------|
G|-------------------------------------------------------------------------------------------------|
D|-------------------------------------------------------------------------------------------------|
A|-------------------------------------------------------------------------------------------------|
E|-------------------------------------------------------------------------------------------------|

Gtr 1
E|-------------------------------------------------------------------------------------------------|
B|-------------------------------------------------------------------------------------------------|
G|-------------------------------------------------------------------------------------------------|
D|--5---5--5--5-5-5-5-5--4---4--4--4-4-4-4-4-------------------------------------------------------|
A|--3---3--3--3-3-3-3-3--2---2--2--2-2-2-2-2-/7--7-7--/7--7-7--7-7-7-7--/7--7-7--/7--7-7--7-7-7-7--|
E|-------------------------------------------/5--5-5--/5--5-5--5-5-5-5--/5--5-5--/5--5-5--5-5-5-5--|

Gtr 2
E|--------------10-------------------10------------------------10-----------------------------10---|
B|--13-------------------12------------------10-----------------------------10---------------------|
G|-------------------------------------------------------------------------------------------------|
D|-------------------------------------------------------------------------------------------------|
A|-------------------------------------------------------------------------------------------------|
E|-------------------------------------------------------------------------------------------------|


Gtr 1
E|-------------------------------------------------------------------------------------------------|
B|-------------------------------------------------------------------------------------------------|
G|-------------------------------------------------------------------------------------------------|
D|--5---5--5--5-5-5-5-5--4---4--4--4-4-4-4-4-------------------------------------------------------|
A|--3---3--3--3-3-3-3-3--2---2--2--2-2-2-2-2-/7--7-7--/7--7-7--7-7-7-7--/7--7-7--/7--7-7--7-7-7-7--|
E|-------------------------------------------/5--5-5--/5--5-5--5-5-5-5--/5--5-5--/5--5-5--5-5-5-5--|

Gtr 2
E|--------------10-------------------10------------------------10-----------------------------10---|
B|--13-------------------12------------------10-----------------------------10---------------------|
G|-------------------------------------------------------------------------------------------------|
D|-------------------------------------------------------------------------------------------------|
A|-------------------------------------------------------------------------------------------------|
E|-------------------------------------------------------------------------------------------------|


Gtr 1
E|-------------------------------------------------------------------------------------------------|
B|-------------------------------------------------------------------------------------------------|
G|-------------------------------------------------------------------------------------------------|
D|--5---5--5--5-5-5-5-5--4---4--4--4-4-4-4-4-------------------------------------------------------|
A|--3---3--3--3-3-3-3-3--2---2--2--2-2-2-2-2-/7--7-7--/7--7-7--7-7-7-7--/7--7-7--/7--7-7--7-7-7-7--|
E|-------------------------------------------/5--5-5--/5--5-5--5-5-5-5--/5--5-5--/5--5-5--5-5-5-5--|

Gtr 2
E|--------------10-------------------10------------------------10-----------------------------10---|
B|--13-------------------12------------------10-----------------------------10---------------------|
G|-------------------------------------------------------------------------------------------------|
D|-------------------------------------------------------------------------------------------------|
A|-------------------------------------------------------------------------------------------------|
E|-------------------------------------------------------------------------------------------------|


Outro
"I wanna watch ya burn"
E|-------------------------|--------------------------------|
B|-10h12-12-12-10h12-12-12-|-10h12p10---17~-----------------|
G|-------------------------|----------9---------------------|
D|-------------------------|--------------------------------|
A|-------------------------|--------------------------------|
E|-------------------------|--------------------------------|

E|-------------------------|--------------------------------|
B|-10h12-12-12-10h12-12-12-|-10h12p10---17~-----------------|
G|-------------------------|----------9---------------------|
D|-------------------------|--------------------------------|
A|-------------------------|--------------------------------|
E|-------------------------|--------------------------------|

E|---12--13---15-----------|---12--13---15^-----------------|
B|-------------------------|--------------------------------|
G|-------------------------|--------------------------------|
D|-------------------------|--------------------------------|
A|-------------------------|--------------------------------|
E|-------------------------|--------------------------------|


==============

Author/Artist: Cold
Title: Serial Killer
Album: Cold
Transcribed by: Wes Dolezal
Tunning: Drop D

This is the second song I tabed.  Don't forget to let me
know what you think of these tabs, and if I sohould go ahead
and do more.  Visit my website
Otros videos de esta canción
    0 exhibiciones
      • ½ Tono
      • Am
      • Bbm
      • Bm
      • Cm
      • C#m
      • Dm
      • Ebm
      • Em
      • Fm
      • F#m
      • Gm
      • G#m
    • Agregar a la lista

    Afinação da cifra

    Afinador online

      Ops (: Contenido disponible solo en portugués.
      OK