Cifra Club

She Said

Cold

Cifrado: Principal (guitarra y guitarra eléctrica)
Selo Cifra Club: esta cifra foi revisada para atender aos critérios oficiais da nossa Equipe de Qualidade.
tono: G


C F Bb Eb G C


Intro - Piano

|------------------|-----------------|-------------|-----19--17-15-14---|
|--15-17-15--------|-15-17-15--------|-15-17-15----|-17--------------15-|
|-----------16-----|----------16-----|----------16-|--------------------|
|---------------17-|--------------17-|-------------|--------------------|
|------------------|-----------------|-------------|--------------------|
|------------------|-----------------|-------------|--------------------|


|------------------|-----------------|-------------|-----19--17--15----|
|--15-17-15--------|-15-17-15--------|-15-17-15----|-17----------------|
|-----------16-----|----------16-----|----------16-|-------------------|
|---------------17-|--------------17-|-------------|-------------------|
|------------------|-----------------|-------------|-------------------|
|------------------|-----------------|-------------|-------------------|


Verse 1

|-----------|-----------|-----------|-----------|
|-----------|-----------|-----------|-----------|
|-----------|-----------|-----------|-----------|
|-----------|-----------|-----------|-----------|Use Delay & Chorus
|--2--------|--3--------|--3--------|--2--------|
|-----------|-----------|-----------|-----------|    x4

|-----------|-----------|-----------|-----------|
|-----------|-----------|-----------|-----------|
|----4---4--|-----5--5--|--5---5----|----4---4--|
|-----------|-----------|-----------|-----------|
|--2---2----|-2-3---3-3-|-3---3---3-|--2---2----|
|-----------|-----------|-----------|-----------|    x2

Verse 2

Gtr 1
|-----------|-----------|-----------|-----------|
|-----------|-----------|-----------|-----------|
|-----------|-----------|-----------|-----------|
|-----------|-----------|-----------|-----------|
|--2--------|--3--------|--3--------|--2--------|
|-----------|-----------|-----------|-----------|  x2

|-----------|-----------|-----------|-----------|
|-----------|-----------|-----------|-----------|
|----4---4--|-----5--5--|--5---5----|----4---4--|
|-----------|-----------|-----------|-----------|
|--2---2----|-2-3---3-3-|-3---3---3-|--2---2----|
|-----------|-----------|-----------|-----------|  x2

Gtr 2
  pm...........................................
|-----------|-----------|-----------|-----------|
|-----------|-----------|-----------|-----------|
|-----------|-----------|-----------|-----------|
|--4-4-4-4--|--5-5-5-5--|--5-5-5-5--|--4-4-4-4--|
|--2-2-2-2--|--3-3-3-3--|--3-3-3-3--|--2-2-2-2--|
|-----------|-----------|-----------|-----------|   x4

Bridge

|------------|------------|------------|--------------------|
|------------|------------|------------|--------------------|
|--/7-9-7----|--/7-9-7----|--/7-9-7----|-5-5-5-5/7-7-7-7----|
|---------9--|---------9--|---------9--|-----------------9--|
|------------|------------|------------|--------------------|
|------------|------------|------------|--------------------|  x2

Other guitar plays chorus /w Phaser x 4

|------------------------(19)-------------|
|--feedback-pitch-G-----------------------|
|-----------------------------------------|
|-----------------------------------------|
|-----------------------------------------|
|-----------------------------------------|

throw this in a couple times on last 2 chorus's
then some pick scrapes

Chorus

|-------------------------------------|
|-------------------------------------|
|--7--7-------------------------------|
|--7--7--x-5/7-7-7-7-7-8-8-8-5---5-5--|
|--5--5--x-5/7-7-7-7-7-8-8-8-5---5-5--|
|--------x-3/5-5-5-5-5-6-6-6-3---3-3--|

|-------------------------------------|
|-------------------------------------|
|--7--7-------------------------------|
|--7--7--x-5/7-7-7-7-7-8-8-8-5---5-5--|
|--5--5--x-5/7-7-7-7-7-8-8-8-5---5-5--|
|--------x-3/5-5-5-5-5-6-6-6-3---3-3--|

|-------------------------------------|
|-------------------------------------|
|--7--7-------------------------------|
|--7--7--x-5/7-7-7-7-7-8-8-8-5---5-5--|
|--5--5--x-5/7-7-7-7-7-8-8-8-5---5-5--|
|--------x-3/5-5-5-5-5-6-6-6-3---3-3--|

|-------------------------------------|
|-------------------------------------|
|--7--7-------------------------------|
|--7--7--x-5/7-7-7-7-7-8-8-8-5---5-5--|
|--5--5--x-5/7-7-7-7-7-8-8-8-5---5-5--|
|--------x-3/5-5-5-5-5-6-6-6-3---3-3--|   x4

Intro
Verse1
chorus
verse2
chorus
bridge
chorus
Outro (Intro)


Enjoy since there is only one on here and its wrong
Otros videos de esta canción
    47 exhibiciones
      • ½ Tono
      • A
      • Bb
      • B
      • C
      • Db
      • D
      • Eb
      • E
      • F
      • F#
      • G
      • Ab
    • Agregar a la lista

    Afinação da cifra

    Afinador online

      Ops (: Contenido disponible solo en portugués.
      OK