Cifra Club

Charlie Brown

Coldplay

Tablatura: Principal (guitarra)
Tom: Bb (con acordes en la forma de G) Capo en 3ª casa
[Intro]  Em  C  G  Em  C  Am

E|------3-------3-----3---3---3--3-------------|
B|--1/3--3--0h1---1h0----0--0---0--------------|
G|---------------------------------------------|
D|---------------------------------------------|
A|---------------------------------------------|                       
E|---------------------------------------------|

E|---------------------------------------------|
B|-----0----0----0-----------0----0----0-------|
G|--0h2--0h2--0h2---2--0--0h2--0h2--0h2---2--0-|
D|----------------------2----------------------|
A|---------------------------------------------|
E|---------------------------------------------|


Em     C     G
I    stole a key,
            Em                 C
Took a car downtown where the lost boys meet,
                      Am
I took a car downtown and took what they offered me

Em     C        G
To    set me free,
           Em                       C
I saw the lights go down at the end of the scene,
                               Am
I saw the lights go down and they're standing in front of me

[Em  C  G  Em  C  Am]

 Em    C       G
My scarecrow dreams,
            Em                  C
When they smash my heart into smitharines,
                             Am
I be a bright red rose come bursting the concrete.
 Em     C        G
Be the cartoon heart

 C
Light a fire, light a spark
 D                           C
Light a fire, a flame in my heart

We'll run wild,
                      Em
We'll be glow-in-the-dark

[Em  C  G  Em  C  Am]
[Em  C  G  Em  C  Am]

         D
All the boys, all the girls,
          C              G
All that matters in the world

         D
All the boys, all the girls,
         C              G
All the madness that occurs

         D
All the high's, all the low's,
        Bm               C
As the room a-spinning goes
 C
We'll run riot,
We'll be glowing in the dark

[Em  C  G  Em  C  Am]
[Em  C  G  Em  C  Am]
[Em  C  G  Em  C  Am]

          Em  C  G
So we'll soar
 C
Luminous and wired
                         G
We'll be glowing in the dark
reproducciones 10.307

0 comentarios

mostrar más comentarios

¿Conseguiste tocar?

57 tocaron 0 aún no

¡Graba un vídeo tocando Charlie Brown y envianoslo!

00:00 / 00:00
outros vídeos desta música
repetir qualidade Automático
Outros vídeos desta música
00:00 / 00:00
Automático
OK