Cifra Club

Christmas Lights

Coldplay

Cifrado: Principal (guitarra y guitarra eléctrica)
tono: G
[Intro]

E|-15-----------14-------------------------------------|
B|-----15-15--------15-15----12-13-15--15-15---15-15---|
G|-----0--0---------0--0---------------0--0----0--0----|
D|-----------------------------------------------------|
A|-----------------------------------------------------|
E|-----------------------------------------------------|

     G                C9       D                
E|-3---7------------------10-7-------------------------|
B|-------0--------8-----8------10-8--------------------|
G|-0-----0--------0---0--------------------------------|
D|---0-------0-----------------------------------------|
A|------------------7--------9-------------------------|
E|-3---------------------------------------------------|

     G                C9       D
E|-3---7------------------10-7-------------------------|
B|-------0--------8-----8------10-8--------------------|
G|-0-----0--------0---0--------------------------------|
D|---0-------0---------------0-------------------------|
A|-----------------------------------------------------|
E|-3----------------8----------------------------------|

[Primeira Parte]

   G
Christmas night, another fight
                   C9  D
Tears we cried a flood
 C
Got all kinds of poison in
               C9  D
Poison in my blood

G
I took my feet

To Oxford Street
                  C9 D
Trying to right a wrong
G
Just walk away

Those windows say
                          C9 D
But I can't believe she's gone

C9
When you're still waiting

For the snow to fall

Doesn't really feel like
   D2        G
Christmas at all

( G )

( C9  D )

[Refrão]

Em7
Up above candles on air flicker
          C9          G
Oh they flicker and they float
 G
But I'm up here holding on
               D4            D
To all those chandeliers of hope

 Em7
Like some drunken Elvis singing
C9               G
I go singing out of tune
 G
Saying how I always loved you darling
D4            D
And I always will

[Ponte]

C9
Oh when you're still waiting

For the snow to fall

Doesn't really feel like
   D2
Christmas at all
  G
Still waiting for the snow to fall

It doesn't really feel like
   D2
Christmas at all

( G  G/F#  C9  D  C9 )

[Segunda Parte]

                 G
Those Christmas lights

Light up the street
                C9        G
Down where the sea and city meet
               C9           Em7
May all your troubles soon be gone
              G            G4    G
Oh Christmas lights keep shining on

  C9                  G
Those Christmas lights
 C9        G
Light up the street
                C9            G
Maybe they'll bring her back to me
  C9                          G
Then all my troubles will be gone
              D4                 G
Oh Christmas lights keep shining on

( G  C9  G )

 G      C9            Em7
Woahohohohhhhhhhahhhhhohohhhh

( G/F#  G  G4  G )

[Final]

G
Oh Christmas lights
 G4             G
Light up the street
              C9
Light up the fireworks in me
               Em7
May all your troubles soon be gone

G                    C9      G
Oh Christmas lights keep shining on

( D4  C9  G )
00:00 / 00:00
Otros videos de esta canción
Repetir
Otros videos de esta canción
Compositor no encontrado.
Colaboración y revisión:
  • Gabriel Silva
  • Marcus Vinícius
  • Lizandra
1.806 vistas
    • ½ Tono
    • A
    • Bb
    • B
    • C
    • Db
    • D
    • Eb
    • E
    • F
    • F#
    • G
    • Ab
  • Agregar a la lista

    0 comentarios

    Ver todos los comentarios

    ¿Lograste tocar?

    5 Tocaron 1 Aún no

    ¡Graba un video tocando Christmas Lights y envíanoslo!

    00:00 / 00:00
    OK