Cifra Club

Crests Of Waves

Coldplay

Tablatura: Principal (guitarra)
Tom: C
RIFF INTRO: Tom C

|--------------------------------------------------------------|
|--------------------------------------------------------------|
|--------------------------------------------------------------|
|--------7-------7--7--7---------------------------------------|
|--------7-------7--7--7---------------------------------------|
|--------7-------7--7--7---------------------------------------|

|------------7---7---------------------------------------------|
|--------------9--------------5------4-------------------------|    este riff se repete 3x  
|---------------------4----6----6--6----6--5--6----------------|
|--------------------------------------------------------------|
|--------------------------------------------------------------|
|--------------------------------------------------------------|

|------0---0-0-------------------------------------------------|
|------5--5----4-4--5--4---------------------------------------|    
|--------------------------------------------------------------|
|--------------------------------------------------------------|
|--------------------------------------------------------------|
|--------------------------------------------------------------|
 
Acordes Usados:
   C7  G    C    Bm   Am  D7  Dm
e|  0  3    0    2    0    2  1
b|  1  3    1    3    1    1  3
G|  3  0    0    4    2    2  2
D|  2  0    2    4    2    0  0
A|  3  2    3    2    0    0  0
E|  0  3    0    0    0    0  0

Verso 1:

C
It could be worse,
            F
I could be alone,
           Am                   G
I could be locked in here on my own,
C                            F 
Like a stone that suddenly drops,
         D7     G
It never stops, no,
C
I could be lost,
              F
Or I Could be saved,
        Am                   G
Calling out from beneath the waves,
C                          F
Beaten down by this ocean rain,
      D7
Never again,
      G
Never again,
Note: During the "Ohh, ohh, ohh," part in the chorus, Jonny play the
      same as the intro.
Chorus:
G       C    Bm
Ohhh, ohhh, ohhh,
G       C    G
Ohhh, ohhh, ohhh,
G       C    B
Ohhh, ohhh, ohhh,
Am                             D7

Screaming out from the crests of waves,

Instrumental:
G    C    Bm
G    C    G
G    C    Bm
Am   D7

Verso 2:
C
It could be worse,
          F
Bitter or sweet,
            Am                     G
It could be snapped from the jaws of defeat,
C                  F
Like a light lit upon a beach,
          Am
Wear your heart on your sleeve,
G
Oh,
C                           F
You want to stop before you begin,
            Am                           G
You want to sink when you know you could swim,
C                                F
You want to stop just before you begin,
      D7
Never give in,
      G
Never give in,

Coro:

G      C     Bm
Ohhh, ohhh, ohhh,
G      C     G
Ohhh, ohhh, ohhh,
G      C    Bm
Ohhh, ohhh, ohhh,
Am                            D7

Screaming out from the crests of waves,

Ponte:
        
       Am
Nothing matters,
       C                     F
Except life and the love you make,
        Am
Nothing matters,
       C                     F
Except life and the love you make,
        Am
Nothing matters,
       C                 F   Am
Except life and the love you make,
       C                     F
Except life and the love you make,

Coro:

G      C     Bm
Ohhh, ohhh, ohhh,
G      C     G
Ohhh, ohhh, ohhh,
G      C    Bm
Ohhh, ohhh, ohhh,
Am           

Am                               D7
Screaming out from the crests of waves,
G      C    Bm
Ohhh, ohhh, ohhh,
G      C    G
Ohhh, ohhh, ohhh,
G      C    Bm
Ohhh, ohhh, ohhh,

Am                               D7
Screaming out from the crests of waves,

Fade:
Am                       D7
Where your longing to be saved,
Am                               D7
Screaming out from the crests of waves,
Am                       D7
Where your longing to be saved,
Am                               Dm
Screaming out from the crests of waves,
reproducciones 448
Acordes para:
    Composição: Chris Martin / Guy Berryman / Jon Buckland / Will Champion Colaboración y revision:
    • Abner Dias

    0 comentarios

    mostrar más comentarios

    ¿Conseguiste tocar?

    2 tocaron 0 aún no

    ¡Graba un vídeo tocando Crests Of Waves y envianoslo!

    00:00 / 00:00
    outros vídeos desta música
    repetir qualidade Automático
    Outros vídeos desta música
    00:00 / 00:00
    Automático
    OK