Cifra Club

Don't Panic

Coldplay

Chords: Principal (acoustic and electric guitars)
tone: C
[Intro] F7M  F7M  F9
        F7M  F7M  F9

Am                  C/G                F7M    F9  F7M
Bones sinking like stones, all that we fought for
Am                  C/G                 F7M   F9  F7M
Homes places we've grown, all of us are done for

Dm                            Am
  We live in a beautiful world
  G
  Yeah we do, yeah we do
 Dm                           F7M  F9  F7M
  We live in a beautiful world

Am                  C/G                F7M    F9  F7M
Bones sinking like stones, all that we fought for
Am                  C/G                 F7M   F9  F7M
Homes places we've grown, all of us are done for

Dm                            Am
  We live in a beautiful world
  G
  Yeah we do, yeah we do
 Dm                           F7M  F9  F7M
  We live in a beautiful world

( Am  C/G  F7M  F9  F7M ) 
( Am  C/G  F7M  F9  F7M ) 

E|----------------------------------------------|
B|--5-8-6-5-5-8-6-5-3-1--5-8-6-5-5-8-6-5-6-5----|
G|-------------------------------------------2--|
D|----------------------------------------------|
A|----------------------------------------------|
E|----------------------------------------------|

Dm                            Am
  We live in a beautiful world
  G
  Yeah we do, yeah we do
 Dm                           F7M  F9  F7M
  We live in a beautiful world

E|-------12--12--12--12--12--12--12--------------|
B|-5/13----13--13--13--13--13--13--13------------|
G|-----------------------------------------------|
D|-----------------------------------------------|
A|-----------------------------------------------|
E|-----------------------------------------------|

E|-----5------------5----------------------------|
B|-5h6---5h6p5--5h6---5h6------------------------|
G|-----------------------------------------------|
D|-----------------------------------------------|
A|-----------------------------------------------|
E|-----------------------------------------------|

Am              C/G                          F7M  F9  F7M
Oh all that I know, there's nothing here to run from
     Am              C/G                    F7M  F9  F7M
Cos' yeah, everybody here's got somebody to lean on
00:00 / 00:00
Other videos of this song
Repeat
Other videos of this song
Composed by Chris Martin / Guy Berryman / Jon Buckland / Will Champion
17.662 views
    • ½ Tone
    • A
    • Bb
    • B
    • C
    • Db
    • D
    • Eb
    • E
    • F
    • F#
    • G
    • Ab
  • Add to list
    00:00 / 00:00
    OK