Cifra Club

For You

Coldplay

Cifrado: Principal (guitarra y guitarra eléctrica)
tono: E
[Intro] B  F#m7  B  F#m7  B  F#m7  B  F#m7

[Solo]

E|---11---9-11-12-----11-9-11-12-11---9--9---|
B|-------------------------------------12----|
G|-------------------------------------------|
D|-------------------------------------------|
A|-------------------------------------------|
E|-------------------------------------------|

E|----9-11--9--11-12---14--------------------|
B|-12---------------------12-----------------|
G|----------------------------------11-------|
D|-------------------------------------13----|
A|-------------------------------------------|
E|-------------------------------------------|

B                         F#m7
If you're lost and feel alone
B                    F#m7
Circumnavigate the globe
B                     F#m7         B   F#m7
All you ever have to hope for too
B                       F#m7
And the way you seem to flow
B                 F#m7
Circumnavigate in hope
B                      F#m7              B   F#m7
And they seem to lose control, with you

( B9  B7M(9)  B9  B7M(9) )
( B9  B7M(9)  B9  B7M(9) )
( A9  A7M(9)  A9  A7M(9) )
( A9  A7M(9)  A9  A7M(9) )
( B9  B7M(9)  B9  B7M(9) )
( B9  B7M(9)  B9  B7M(9) )
( A9  A7M(9)  A9  A7M(9) )
( A9  A7M(9)  A9  A7M(9) )

[Solo]

E|---11---9-11-12-----11-9-11-12-11---9--9---|
B|-------------------------------------12----|
G|-------------------------------------------|
D|-------------------------------------------|
A|-------------------------------------------|
E|-------------------------------------------|

E|----9-11--9--11-12---14--------------------|
B|-12---------------------12-----------------|
G|----------------------------------11-------|
D|-------------------------------------13----|
A|-------------------------------------------|
E|-------------------------------------------|

B                 F#m7 
Everyone of us is hurt
B                      F#m7 
And everyone of us is scarred
B                 F#m7           B   F#m7
Everyone of us is scared, not you

B          F#m7 
Your eyes closed
B          F#m7 
Your head hurts
B                 F#m7  B  F#m7 
Your eyes feel so low

( B9  B7M(9)  B9  B7M(9) )
( B9  B7M(9)  B9  B7M(9) )
( A9  A7M(9)  A9  A7M(9) )
( A9  A7M(9)  A9  A7M(9) )
( B9  B7M(9)  B9  B7M(9) )
( B9  B7M(9)  B9  B7M(9) )
( A9  A7M(9)  A9  A7M(9) )
( A9  A7M(9)  A9  A7M(9) )

B                 F#m7 
Everyone of us is scared
B                 F#m7 
Everyone of us is hurt
B                  F#m7 
Everyone of us has hope
B      F#m7 
For you
00:00 / 00:00
Otros videos de esta canción
Repetir
Otros videos de esta canción
Composición de Chris Martin / Guy Berryman / Jon Buckland / Will Champion
Colaboración y revisión:
  • Gustavo Vieira
1.829 vistas
    • ½ Tono
    • A
    • Bb
    • B
    • C
    • Db
    • D
    • Eb
    • E
    • F
    • F#
    • G
    • Ab
  • Agregar a la lista

    0 comentarios

    Ver todos los comentarios

    ¿Lograste tocar?

    0 Tocaron 0 Aún no

    ¡Graba un video tocando For You y envíanoslo!

    00:00 / 00:00
    OK