Cifra Club

Hurts Like Heaven

Coldplay

Tab de bajo: Principal
Afinação Padrão

Written in graffiti on...
G-----------------------------------|
D-----------------------------------|
A------------------6-66-66-6-6-6----|
E-6-66-66-6-6-6/8~------------------| 2x


See the arrow that...
G----------------------------------|
D----------------------------------|
A-8-88-88-8-8-8--6-66-66-6-6-6-----|
E----------------------------------|


Of you- ooh ooh...
G-----------------------------------|
D-----------------------------------|
A------------------6-66-66-6-6-6----|
E-6-66-66-6-6-6/8~------------------| 2x


Cause you do...
G-----------------------------------|
D-----------------------------------|
A-----------8~~--~6~~---------------|
E-6~~~~~~~~-------------------------|

G-----------------------------------|
D-----------------------------------|
A------------------6-66-66-6-6-6----|
E-6-66-66-6-6-6/8~------------------| 


On every street every ...
G-----------------------------------|
D-----------------------------------|
A------------------6~-66-6\\\\\\\\--|
E-6~~~~~~~~~~~~-/8~-----------------| 


Yes I feel a little...
( no bass )


So on a concrete canvas...
G----------------------------------|
D----------------------------------|
A-8-88-88-8-8-8--6-66-66-6-6-6-----|
E----------------------------------|


And you ooh ooh...

G-----------------------------------|
D-----------------------------------|
A------------------6-66-66-6-6-6----|
E-6-66-66-6-6-6/8~------------------| 2x


Cause You use your heart...
G-----------------------------------|
D-----------------------------------|
A-----------8~~--~6~~---------------|
E-----------------------------------|

Solo da Guitarra
G-----------------------------------|
D-----------------------------------|
A------------------6-66-66-6-6-6----|
E-6-66-66-6-6-6/8~------------------| 2x


Woooohh, wooohh....its true.. .
G----------------------------------|
D----------------------------------|
A-8-88---6-66-------5-55-5---------|
E-------------6-66-----------------|


When You use your heart...
G-----------------------------------|
D-----------------------------------|
A-----------8~~--~6~~---------------|
E-----------------------------------|


double stops finais... 
G--7~~~~~~-------12~~~~~~~~---------|
D-----------------------------------|
A-----------------------------------|
E--7~~~~~~-8//---12~~~~~~~~---------|


G--7~~~~~~-------12~~~~~~~~---------|
D-----------------------------------|
A-----------------------------------|
E--7~~~~~~-8//---12~~~~~~~~---------|


G--7~~~~~~-------12~~~~~~~~---------|
D-----------------------------------|
A-----------------------------------|
E--7~~~~~~-8//---12~~~~~~~~---------|


G--7~~~~~~-------12~~~~~~~~---------|
D-----------------------------------|
A-----------------------------------|
E--7~~~~~~-8//---12~~~~~~~~---------|
reproducciones 68

0 comentarios

mostrar más comentarios

¿Conseguiste tocar?

0 tocaron 0 aún no

¡Graba un vídeo tocando Hurts Like Heaven y envianoslo!

00:00 / 00:00
outros vídeos desta música
repetir qualidade Automático
Outros vídeos desta música
00:00 / 00:00
Automático
OK