Cifra Club

In My Place

Coldplay

Tab de bajo: Principal
  Intro/verso/
G[------------------------------------------]
D[------------------------------------------]
A[--------------------4-4/7-7-7-------------]
E[-5-5-5-4-4-4-4----------------------------]


G[------------------------------------------]
D[------------------------------------------]
A[--------------------4-4/7-7-7-------------]
E[-5-5-5-2-2-2-2----------------------------]


     refrão                                                                            
G[------------------------------------]
D[-----------------7---9-7-6----------]
A[--5~-5-5-5-5-7--------------7\-5----]
E[------------------------------------]



Pra pegar o tempo....é só escutar a musica....é bem facil!!!
Composición de Chris Martin / Guy Berryman / Jon Buckland / Will Champion
Colaboración y revisión:
  • Vinicius Chagas
300 vistas

0 comentarios

Ver todos los comentarios

¿Lograste tocar?

1 Tocaron 0 Aún no

¡Graba un video tocando In My Place y envíanoslo!

00:00 / 00:00
Outros vídeos desta música
Repetir Calidad Automático
Outros vídeos desta música
00:00 / 00:00
Automático
OK