Cifra Club

Ink

Coldplay

Tab de bajo: Principal
Introdução: sem contrabaixo;

1º Verso: sem contrabaixo;


1º Refrão (1/2):
G|---------------------------------------------------------------------------------|
D|---------------------------------------------------------------------------------|
A|-2-2-2-2--2-2-2—2--2-4-4-4--4--4-4-4--4----------------------2-2-2-2--2-2-2—2--2-| 
E|-----------------------------------------2-2-2--2--2-2-2--2----------------------|

1º Refrão (2/2):
G|--------------------------------------------|
D|--------------------------------------------|
A|-2-2-2--2--2-2-2-2—2--2-4-4-4--4--4-4-4--4--| 
E|--------------------------------------------|


Instrumental: sem contrabaixo;

2º Verso: sem contrabaixo; 


2º Refrão (1/2):
G|---------------------------------------------------------------------------------|
D|---------------------------------------------------------------------------------|
A|-2-2-2--2--2-2-2--2--4-4-4--4--4-4-4--4----------------------2-2-2--2--2-2-2--2--| 
E|-----------------------------------------2-2-2--2--2-2-2--2----------------------|

2º Refrão (2/2):
G|-------------------------------------------|
D|-------------------------------------------|
A|-2-2-2--2--2-2-2--2--2-4-4-4--4--4-4-4--4--| 
E|-------------------------------------------|


Continuação 2º Refrão (1/2):
G|----------------------------------------------------------------------------------|
D|-4-4-4--4--4-4-4--4---------------------------------------------------------------|
A|---------------------2-2-2--2--2-2-2-2-2--2-2-2--2------------4-4-4--4--4-4-4--4--| 
E|----------------------------------------------------2-2-2--2----------------------|

Continuação 2º Refrão (2/2):
G|------------------------------------------------------------------------------------|
D|-4-4-4--4---------------------------------------------------------------------------|
A|-----------4-4-4--4--2-2-2--2--2-2-2--2--2-2-2--2--2-2-2-2-2--2-4-4-4--4--4-4-4--4--| 
E|------------------------------------------------------------------------------------|


Final (1/3):
G|-----------------------------------------------------------|
D|-----------------------------------------------------------|
A|-2-2----4-4-6--2-2-----6-6-4--2-2----4-4-6--2-2-----6-6-4--| 
E|-----2-------------2--/-----------2-------------2--/-------|

Final (2/3):
G|-----------------------------------------------------------|
D|-----------------------------------------------------------|
A|-2-2----4-4-6--2-2-----6-6-4--2-2----4-4-6--2-2-----6-6-4--| 
E|-----2-------------2--/-----------2-------------2--/-------|

Final (3/3):
G|-------------------------|
D|-------------------------|
A|-2-----4--6--2-----6--4--| 
E|----2-----------2--------|
00:00 / 00:00
Otros videos de esta canción
Repetir
Otros videos de esta canción
Composición de Chris Martin / Guy Berryman / Jon Buckland / Will Champion
Colaboración y revisión:
  • Paulo Richa
44 vistas

0 comentarios

Ver todos los comentarios

¿Lograste tocar?

0 Tocaron 0 Aún no

¡Graba un video tocando Ink y envíanoslo!

00:00 / 00:00
OK