Cifra Club

Life Is For Living

Coldplay

Tablatura: Principal (guitarra)
Tom: Bb (con acordes en la forma de A) Capo en 1ª casa
Dedilhado:

      A     F#m    E4(6)  E       D     Bm7     A  Asus4 A
E|---------------------------|----------------------------|
B|----2------2------2----0---|----3------3------2--3--2---|
G|----2------2------2----1---|----2------2------2--2--2---|
D|---------------------------|--0-------------------------|
A|--0------------------------|------4--2---2--0-------0---|
E|------4--2---2--0----0-----|----------------------------|


A            F#m
Now I never meant
      E4(6)    E
To do you wrong
  D            Bm           A   Asus4 A
That's what I came here to say
    A          F#m
But if I was wrong
         E4(6)  E
Then I'm sorry
         D       Bm          A    Asus4 A
I don't let it stand in our way

 A                  F#m
'Cause my head just aches
        E4(6)    E
When I think of
      D             Bm            A    Asus4 A
The things that I shouldn't have done
A                F#m
But life is for living
   E4(6)    E
We all know
       D           Bm       A    Asus4 A
And I don't wanna live it alone

    E7/D  D7M

E|---4-----5---|
B|---5-----7---|
G|---4-----6---|
D|---0-----0---|
A|---x-----x---|
E|---x-----x---|

     E4  A   E7
Sing ah  ah  ah
     D  E7/D D7M
Sing ah  ah  ah
             E4  A   E7
And you sing ah  ah  ah


A F#m E4(6) E  D Bm A  Asus4 A   (até o final)


*Na versão ao vivo, são adicionados alguns versos ao final da música, que mudam de ordem.
 Para tocá-los, basta usar os mesmos acordes da maior parte da música.
reproducciones 568
Acordes para:
    Colaboración y revision:
    • Lucas Carvalho

    0 comentarios

    mostrar más comentarios

    ¿Conseguiste tocar?

    0 tocaron 0 aún no

    ¡Graba un vídeo tocando Life Is For Living y envianoslo!

    00:00 / 00:00
    outros vídeos desta música
    repetir qualidade Automático
    Outros vídeos desta música
    00:00 / 00:00
    Automático
    OK