Cifra Club

Aprenda

Midnight

Coldplay

Tab de bajo: Principal
1º Verso: sem contrabaixo;

1º Refrão: sem contrabaixo;

1º Instrumental: sem contrabaixo;


2º Verso (1/3):
G|----------------------------------|
D|----------------------------------|
A|----------------------------------|
E|-6--6--4------2-2-2-2-2-2-2-2-2-2-|

2º Verso (2/3):
G|---------------------------|
D|---------------------------|
A|---------------------------|
E|-6--6--4-4-4-4-4-4-2-2-2-2-|

2º Verso (3/3):
G|---------------------------------|
D|---------------------------------|
A|---------------------------------|
E|-6-6-6-6-6-6-4----1--2-2-2-2-2-2-|


2º Refrão (1/2): 
G|---------------------------------|
D|---------------------------------|
A|---------------------------------|
E|-4-4-4-4-4-4-2-2-2-2-2-2-2-2-2-2-|

2º Refrão (2/2): 
G|-----------------------------|
D|-----------------------------|
A|-----------------------------|
E|-4-4-4-4-4-4-2-2-2-2-2-2-2-2-|


2º Instrumental (1/5): sem contrabaixo;

2º Instrumental (2/5):
G|---------------------------------|
D|---------------------------------|
A|-------------4-4-----------------|
E|-6-6-6-6-6-6-----2-2-2-2-2-2-2-2-|

2º Instrumental (3/5):
G|---------------------------------|
D|---------------------------------|
A|-------------4-4-----------------|
E|-6-6-6-6-6-6-----2-2-2-2-2-2-2-2-|

2º Instrumental (4/5):
G|---------------------------------|
D|---------------------------------|
A|-------------4-4-----------------|
E|-6-6-6-6-6-6-----2-2-2-2-2-2-2-2-|

2º Instrumental (5/5):
G|---------------------------------|
D|---------------------------------|
A|-------------4-4-----------------|
E|-6-6-6-6-6-6-----2-2-2-2-2-2-2-2-|


3º Refrão (1/2): 
G|---------------------------------|
D|---------------------------------|
A|---------------------------------|
E|-4-4-4-4-4-4-4-4-2-2-2-2-2-2-2-2-|

3º Refrão (1/2): 
G|---------------------------------|
D|---------------------------------|
A|---------------------------------|
E|-4-4-4-4-4-4-1-1-2-2-2-2-2-2-2-2-|


3º Instrumental (1/10):
G|---------------------------------|
D|---------------------------------|
A|-------------4-4-----------------|
E|-6-6-6-6-6-6-----2-2-2-2-2-2-2-2-|

3º Instrumental (2/10):
G|---------------------------------|
D|---------------------------------|
A|-------------4-4-------------4-4-|
E|-6-6-6-6-6-6-----2-2-2-2-2-2-----|

3º Instrumental (3/10):
G|---------------------------------|
D|---------------------------------|
A|-------------4-4-------------4-4-|
E|-6-6-6-6-6-6-----2-2-2-2-2-2-----|

3º Instrumental (4/10):
G|---------------------------------|
D|---------------------------------|
A|-------------4-4-------------4-4-|
E|-6-6-6-6-6-6-----2-2-2-2-2-2-----|

3º Instrumental (5/10):
G|---------------------------------|
D|---------------------------------|
A|-------------4-4-----------------|
E|-6-6-6-6-6-6-----2-2-2-2-2-2-2-2-|

3º Instrumental (6/10):
G|---------------------------------|
D|---------------------------------|
A|-------------4-4-------------4-4-|
E|-6-6-6-6-6-6-----2-2-2-2-2-2-----|

3º Instrumental (7/10):
G|---------------------------------|
D|---------------------------------|
A|-------------4-4-------------4-4-|
E|-6-6-6-6-6-6-----2-2-2-2-2-2-----|

3º Instrumental (8/10):
G|---------------------------------|
D|---------------------------------|
A|-------------4-4-----------------|
E|-6-6-6-6-6-6-----2-2-2-2-2-2-2-2-|

3º Instrumental (9/10):
G|---------------------------------|
D|---------------------------------|
A|-------------4-4-------------4-4-|
E|-6-6-6-6-6-6-----2-2-2-2-2-2-----|

3º Instrumental (10/10):
G|------------------------------|
D|------------------------------|
A|-------------4-4--------------|
E|-6-6-6-6-6-6-----2-2-2-2-2-2--|


Verso Final: sem contrabaixo;

Refrão Final: sem contrabaixo;
Compositor Chris Martin / Guy Berryman / Jonny Buckland / Will Champion
Colaboración y revision:
  • Paulo Richa
9 reproducciones

0 comentarios

Mostrar mais comentários

¿Conseguiste tocar?

0 Tocaron 0 Ainda não

Grave um vídeo tocando Midnight e mande pra gente!

00:00 / 00:00
outros vídeos desta música
repetir qualidade Automático
Outros vídeos desta música
00:00 / 00:00
Automático
OK