Cifra Club

Speed Of Sound

Coldplay

Tab de bajo: Principal
Standard tunning

( verso ) ("Look up, I look up at night ... )
G|---------------------------------------------------------|
D|---------------------------------------------------------|   X 4
A|--------------7-7-7-7---5-7-7-7--5-7-7-5-5-5-------------|
E|--5-5-0-3-5-5----------7-------7--------------5-5-3-0-0--|


("All that noise and 
all that sound")
G|-------------------------------------|
D|-------------------------------------|
A|-------------------------------------| x 2
E|-/33333333-55555555-7777777777777777-|


("And birds go flying at the speed of sound
To show you how it all began..")
G|-------------------------------------------------------------------------------------|
D|-------------------------------------------------------------------------------------|
A|--10-10-10-10-10-10-10-10\-----------------5-5-5-5-5-5-5-5-10-10-10-10-10-10-10-10---|
E|---------------------------7-7-7-7-7-7-7-7-------------------------------------------|

G|--------------------------------------------|
D|--------------------------------------------|
A|--10-10-10-10-10-10-10-10\-----------------\|
E|---------------------------7-7-7-7-7-7-7-7--|


G|---------------------------------------------------------------|
D|---------------------------------------------------------------|
A|-9-9-9-9-9-9-9-9-10-10-10-10-10-10-10-10-10-10-10-10-10-10-10\\|
E|---------------------------------------------------------------|


Minuto 2:18 Guy riff,.
G--------------------------------------------------------------------------------|
D-12h14-14--12---------12h14-14--12--------12h14-14-12--------12h14-14-----------|
A--------------14-14----------------12-12--------------14-14---------------------|
E-----------------------------------------------------------------------12\\\----|

( verso ) ("Ideas that you'll never find
All the inventors could never design ... )
G|---------------------------------------------------------|
D|---------------------------------------------------------|   X 4
A|--------------7-7-7-7---5-7-7-7--5-7-7-5-5-5-------------|
E|--5-5-0-3-5-5----------7-------7--------------5-5-3-0-0--|


("All that noise and 
all that sound")
G|-------------------------------------|
D|-------------------------------------|
A|-------------------------------------| x 2
E|-/33333333-55555555-7777777777777777-|


("And birds go flying at the speed of sound
To show you how it all began..")
G|-------------------------------------------------------------------------------------|
D|-------------------------------------------------------------------------------------|
A|--10-10-10-10-10-10-10-10\-----------------5-5-5-5-5-5-5-5-10-10-10-10-10-10-10-10---|
E|---------------------------7-7-7-7-7-7-7-7-------------------------------------------|

G|--------------------------------------------|
D|--------------------------------------------|
A|--10-10-10-10-10-10-10-10\-----------------\|
E|---------------------------7-7-7-7-7-7-7-7--|

G|--------------------------------------------|
D|--------------------------------------------|
A|-9-9-9-9-9-9-9-9-10-10-10-10-10-10-10-10-10-|
E|--------------------------------------------|

G|---------------------------------------------------------------------|
D|---------------------------------------------------------------------|
A|-9-9-9-9-9-9-9-9-10-10-10-10-10-10-10-10-10-10-10-10-10-10-10\\--5~~-|
E|---------------------------------------------------------------------|


("All those signs I knew what they meant
Some things you can't invent")
G|--------------------------------------------------------------------|
D|--------------------------------------------------------------------|   
A|---------------------------------------------------9-9-9-9-9-9-9-9--|
E|--3-3-3-3-3-3-3-3-5-5-5-5-5-5-5-5-7-7-7-7-7-7-7-7-------------------|

G|--------------------------------------------------------------------|
D|--------------------------------------------------------------------|   
A|--------------------------------------------------------------------|
E|--3-3-3-3-3-3-3-3-5-5-5-5-5-5-5-5-7-7-7-7-7-7-7-7-2-2-2-2-2-2-2-2---|


(And birds go flying at the speed of sound...")
G----------------------------------------------------------------------|
D----------------------------------------------------------------------|
A-------------------2-2-2-2-2-2-2-2-5-5-5-5-5-5-5-5\-------------------|
E--3-3-3-3-3-3-3-3/----------------------------------3-3-3-3-3-3-3-3---|

E|---------------------------------------------------------------------|
A|---------------------------------------------------------------------|
D|------------------2-2-2-2-2-2-2-2------------------------------------|
G|-3-3-3-3-3-3-3-3/------------------2-2-2-2-2-2-2-2-3-3-3-3-3-3-3-3---|

E|---------------------------------------------------------------------|
A|---------------------------------------------------------------------|
D|---------------------------------------------------------------------|
G|-2-2-2-2-2-2-2-2-3-3-3-3-3-3-3-3-3-3-3-3-3-3-3-3---------------------|

E|---------------------------------------------------------------------|
A|---------------------------------------------------------------------|
D|-12-12-12-12-12-12-12-12-12-12-12-12-12-12-12-12--5~~----------------|
G|-------------------------------------------------------~-------------|
~let ring
/slide up
\slide down
reproducciones 133
Composição: Chris Martin / Guy Berryman / Jon Buckland / Will Champion Colaboración y revision:
  • Vinicius Chagas

0 comentarios

mostrar más comentarios

¿Conseguiste tocar?

0 tocaron 0 aún no

¡Graba un vídeo tocando Speed Of Sound y envianoslo!

00:00 / 00:00
outros vídeos desta música
repetir qualidade Automático
Outros vídeos desta música
00:00 / 00:00
Automático
OK