Cifra Club

Spies

Coldplay

Tablatura: Principal (guitarra)
Tom: E
[Intro:] C#m

F#m                          E
I awake to find no peace of mind,
             A               G#m
I said 'how do you live as a fugitive?'
     F#m                          E
Down here where I cannot see so clear
              A
I said, what do I know?
            G#m
Show me the right way to go,

         F#m                  G#m
And the spies came out of the water,
            A                      G#m
But you're feeling so bad cos you know,
         F#m                     E
But the spies hide out in every corner,
               A
But you can't touch them though,
      B              C#m E B
Cos they're all spies
                 C#m E B E
They're all spies

I awake to see that no one is free,
We're all fugitives, look at the way we live
Down here, I cannot sleep from fear no
I said, which way do I turn?
Oh I forget everything I learn,

A                   B
And if we all hide here,
                     F#m
They're going to find us,
            G#m   A
If we don't hide now,
                            B        A
They're going to catch us where we sleep,
                      B
And if we don't hide here,
                      E4 E G#7(4) G#7
They're going to find us

          A                   G#m
And the spies came out of the water,
            A                       F#m
But you're feeling so good cos you know,
                                   E
And those spies hide out in every corner,
                A
And they can't touch you no,
      B               C#m A B
Cos they're just spies
                  C#m A B
They're just spies


 |---------14---12------10------------14---15------17--------
 |-------0----0----0-------0--------0----0----0-------0------
 |-----------------------------------------------------------
 |--//12-------------12------12//15-------------15------15-
 |-----------------------------------------------------------
 |-----------------------------------------------------------

 |---------14---12------10---------------7---5-----3-------|
 |-------0----0----0-------0-----------0---0---0-----0-----|
 |---------------------------------------------------------|
 |--//12-------------12------12----5-----------5-----5//-| x2
 |---------------------------------------------------------|
 |---------------------------------------------------------|
reproducciones 2.563
Acordes para:

    0 comentarios

    mostrar más comentarios

    ¿Conseguiste tocar?

    13 tocaron 0 aún no

    ¡Graba un vídeo tocando Spies y envianoslo!

    00:00 / 00:00
    outros vídeos desta música
    repetir qualidade Automático
    Outros vídeos desta música
    00:00 / 00:00
    Automático
    OK