Cifra Club

Square One

Coldplay

Tablatura: Principal (guitarra)
Tom: A#
Standard Tuning
* - Volume Swell or E bow
b - Bend

Intro

e|------------------------------------------|
B|------------------------------------------|
G|--5*----12*----17*------5*----12*----17*--|
D|------------------------------------------|
A|------------------------------------------|
E|------------------------------------------|


Verse 1

e|------------------------------------------------------------------|
B|------------------------------------------------------------------|
G|--8*----3*----5*------8*----3*----5*------3*----5*------8*----5*--|
D|------------------------------------------------------------------|
A|------------------------------------------------------------------|
E|------------------------------------------------------------------|


Repeat Intro


Chorus

Gtr. 1 (w/distortion)

e|--------------------------------------------------------------------------|
B|--------------------------------------------------------------------------|
G|--------------------------------------------------------------------------|  Play 3x
D|-------------------------------------------------------------8-8-8-10-10--|
A|--------8-8-8-10-10-------8-8-8-10-10-------8-8-8-10-10-------------------|
E|--8-8-8-------------8-8-8-------------8-8-8-------------8-8-8-------------|

e|------------|                       e|-------------|
B|--9-8-------|                       B|--10-8-------|
G|------10-8--|  Play 8x  then play:  G|-------10-8--|  Play 8x
D|------------|                       D|-------------|
A|------------|                       A|-------------|
E|------------|                       E|-------------|

Gtr. 2 chords (w/distortion)

e|------------------------------------------------------------------|
B|------------------------------------------------------------------|
G|--5----8----5------5----8-----------5----8----5------7----5-------|
D|--5----8----6------5----8----3------5----8----6------8----6----3--|
A|--3----6----6------3----6----3------3----6----6------8----6----3--|
E|------------4----------------1----------------4------6----4----1--|


Verse 2 (w/distortion)

e|----------------------------------------------------|
B|--11*----3*-----------------------------------------|
G|----------------------------------------------------|
D|----------------------------------------------------|
A|----------------------------------------------------|
E|-------------8-8-8-11--11-11-11-8-8-8-11--11-11-11--|

e|---------------------------------------------------------------|
B|--11*----3b4b3b4b3b4b3-----------------------------------------|
G|---------------------------------------------------------------|
D|---------------------------------------------------------------|
A|---------------------------------------------------------------|
E|------------------------8-8-8-11--11-11-11-8-8-8-11--11-11-11--|

e|--------------------------------------------------------------------|
B|--------------------------------------------------------------------|
G|--------------------------------------------------------------------|
D|--------------------------------------------------------------------|
A|-----------10--10-10----------1--1-1--------------------------------|
E|--11-11-11-----------11-3-3-3--------3-8-8-8-11--11-11-11-8-8-8-11--|

e|--18-18-----------------------------------|
B|--------16-16-16-16-----------------------|
G|--------------------15-15-15-14-15-17-----|
D|--------------------------------------12--|
A|------------------------------------------|
E|------------------------------------------|

e|--18-18-----------------------------------|
B|--------16-16-16-16-----------------------|
G|--------------------15-15-15-14-15-17-----|
D|--------------------------------------12--|
A|------------------------------------------|
E|------------------------------------------|


Play Chorus


Outro chords (acoustic)

e|--4----1----3----6--|                       e|--4--|
B|--4----1----4----6--|                       B|--4--|
G|--5----1----5----7--|  Play 2x and end on:  G|--5--|
D|--6----3----5----8--|                       D|--6--|
A|--6----3----3----8--|                       A|--6--|
E|--4----1---------6--|                       E|--4--|
reproducciones 668
Acordes para:
    Composição: Chris Martin / Guy Berryman / Jon Buckland / Will Champion Colaboración y revision:
    • Rafael Fernandes

    0 comentarios

    mostrar más comentarios

    ¿Conseguiste tocar?

    1 tocaron 0 aún no

    ¡Graba un vídeo tocando Square One y envianoslo!

    00:00 / 00:00
    outros vídeos desta música
    repetir qualidade Automático
    Outros vídeos desta música
    00:00 / 00:00
    Automático
    OK