Cifra Club

White Shadows

Coldplay

Tablatura: Principal (guitarra)
Tom: C#
Intro:  G#m

E|-11-11----------11-11---------11-11-----------11-11-------------|
A|--------9-9------------9-9------------9--9-------------9-9------|
D|----------------------------------------------------------------|
G|----------------------------------------------------------------|
B|----------------------------------------------------------------|
E|----------------------------------------------------------------|

E|-11-11----------11-11---------11-11------------11-11---------------|
A|-------11-11-----------11-11----------11-11-------------11-11------|
D|-------------------------------------------------------------------|
G|-------------------------------------------------------------------|
B|-------------------------------------------------------------------|
E|-------------------------------------------------------------------|  (2x)

G#m          B           D#m      C#m
When I was a young boy I tried to listen
G#m         B         D#m
And I wanna feel like that
G#m          B            D#m         C#m
Little white shadows that sparkle and glisten
G#m           B      D#m
I'm part of a system plan

E|-11-11----------11-11---------11-11-----------11-11-------------|
A|--------9-9------------9-9------------9--9-------------9-9------|
D|----------------------------------------------------------------|
G|----------------------------------------------------------------|
B|----------------------------------------------------------------|
E|----------------------------------------------------------------|

E|-11-11----------11-11---------11-11------------11-11---------------|
A|-------11-11-----------11-11----------11-11-------------11-11------|
D|-------------------------------------------------------------------|
G|-------------------------------------------------------------------|
B|-------------------------------------------------------------------|
E|-------------------------------------------------------------------| (2x)

G#m         B                 D#m       C#m
Do you ever feel like there's something missing?
G#m                 B     D#m
Things you'll never understand
G#m          B            D#m          C#m
Little white shadows that blink in the distance
G#m       B      D#m
Part of a system plan

( bridge )

E                      C#m
When all our fears are waking up
E                     C#m
All the space they're taking up
E                                C#m
I said I cannot hear you, you're breaking up
E   C#m
Ohhhh...

chorus:

G#m                    E
Maybe you get what you wanted
B                  D#m
Maybe you stumbled upon it
G#m                 E
Everything you ever wanted
     B          D#m
In a permanent state

G#m                        E
Maybe you'll know when you see it
B                        D#m
Maybe if you say it, you mean it
G#m                    E
When you find that you keep it
     B       D#m
In a permanent state
A permanent state

E|-11-11----------11-11---------11-11-----------11-11-------------|
A|--------9-9------------9-9------------9--9-------------9-9------|
D|----------------------------------------------------------------|
G|----------------------------------------------------------------|
B|----------------------------------------------------------------|
E|----------------------------------------------------------------|

E|-11-11----------11-11---------11-11------------11-11---------------|
A|-------11-11-----------11-11----------11-11-------------11-11------|
D|-------------------------------------------------------------------|
G|-------------------------------------------------------------------|
B|-------------------------------------------------------------------|
E|-------------------------------------------------------------------|   (2x)

( same chord progression )

G#m          B
When I was a young boy
D#m         C#m
I tried to listen
G#m             B         D#m
Don't you wanna feel like that
G#m               B
We're part of the human race
and
D#m                   C#m
All of the stars and outer space
G#m               B      D#m
We're part of the system plan

E|-------------------------------------------------------------------|
A|-------------------------------------------------------------------|
D|--13~---16~--16~--15~--13~--13~--11~--11~--------------------------|
G|-------------------------------------------------------------------|
B|-------------------------------------------------------------------|
E|-------------------------------------------------------------------|   (2x)
( bridge )
( chorus )

( G#m E B D#m ) (2x)

G#m                          E
I swear I'm only seeing faces
Tired of the human races
B                        D#m
Oh, answer now is what I need...

G#m                       E
See it in a new sun rising

See it breaking on your horizon
B                           D#m     G#m
Oh, come on love, stay with me...
reproducciones 1.108
Acordes para:
    Composição: Chris Martin / Guy Berryman / Jon Buckland / Will Champion Colaboración y revision:
    • jeferson Luis
    • Lucas Santos
    • Vinicius Moreira

    0 comentarios

    mostrar más comentarios

    ¿Conseguiste tocar?

    4 tocaron 0 aún no

    ¡Graba un vídeo tocando White Shadows y envianoslo!

    00:00 / 00:00
    outros vídeos desta música
    repetir qualidade Automático
    Outros vídeos desta música
    00:00 / 00:00
    Automático
    OK