Cifra Club

X & Y

Coldplay

Tablatura: Principal (guitarra)
Tom: G
            C
           
e|--3--          e|--8-- 
B|--5--          B|--8--
G|--5--    ou    G|--9--
D|--5--          D|--10-
A|--3--          A|--10-
E|--X--          E|--8--


F#            G  
Trying hard to speak
Bm                   F#m
And fighting with my weak hand
F#           G
Driven to distraction
Bm             F#m
So part of the plan
 
F#               G
When something is broken
Bm             F#m
And you try to fix it
F#          G
Trying to repair it
E           G
Any way you can


E/A    G    E/A    G


e|----7/14-----| 


F#              G
I dive in at the deep end
Bm            F#m 
She become my best friend
F#     G
I wanna love you but 
  Bm              F#m
I don't know if I can 

F#                 G
I know something is broken
Bm                F#m 
And I'm trying to fix it
F#         G
Trying to repair it 
Bm       A
Anyway I can
 
E/A    G    E/A    G  
Oooooooohh, oooooooohh


e|---107-7----|


E/A    G    E/A    G  
Oooooooohh, oooooooohh


D              D/C                    E
You and me are floating on a tidal wave... Together
D              D/C                     E
You and me are drifting into outer space... And singing 


G      E/A    G    E/A
Oooooooohh, oooooooohh


(Solo) F# G Bm F#m (4x)
e|--------------------------------------------------------------------------------| 
B|--------------------------------------------------------------------------------|
G|---6-7-6---4--4/-----/11-12-11----11--11----6-7-6---4--4/-----/11-12-11----11---|
D|---------7---------------------12-----------------7---------------------12------| 
A|--------------------------------------------------------------------------------| 
E|--------------------------------------------------------------------------------|

e|--------------------------------------------------------------------------------| 
B|--------------------------------------------------------------------------------|
G|---6-7-6---4--4/-----/11-12-11----11--11----6-7-6---4--4------7~~~--6~~~--------|
D|---------8---------------------12-----------------7-----------------------------| 
A|--------------------------------------------------------------------------------| 
E|--------------------------------------------------------------------------------|


D              D/C                    E
You and me are floating on a tidal wave... Together
D              D/C                     E
You and me are drifting into outer space...

D              D/C                    E
You and me are floating on a tidal wave... Together
D              D/C                     E
You and me are drifting into outer space... And singing 


G      E/A    G    E/A
Oooooooohh, oooooooohh
G      E/A    G    E/A
Oooooooohh, oooooooohh
reproducciones 1.382
Acordes para:
    Colaboración y revision:
    • Igor Silva

    0 comentarios

    mostrar más comentarios

    ¿Conseguiste tocar?

    3 tocaron 0 aún no

    ¡Graba un vídeo tocando X & Y y envianoslo!

    00:00 / 00:00
    outros vídeos desta música
    repetir qualidade Automático
    Outros vídeos desta música
    00:00 / 00:00
    Automático
    OK