Cifra Club

You Only Live Twice

Coldplay

Tablatura: Principal (guitarra)
Tom: G
B7M          F#7M E7M     B7M
You only live twice or so it seems
E7M             C#dim                 F#7M
One life for yourself and one for your dreams
B7M                  F#7M                B7M
You drift through the years and life seems tame
E7M             F#7M                 B7M
Till one dream appears and love is its name

E7M          F#7M    E7M              F#7M
And love is a stranger who'll beckon you on
E7M               F#7M         E7M        F#7M
Don't think of the danger or the stranger is gone
B                 F#   E           B
This dream is for you, so pay the price
E                   F#                  B
Make one dream come true, you only live twice

RIFF 1 then 2

E7M          F#7M    E7M              F#7M
And love is a stranger who'll beckon you on
E7M               F#7M         E7M        F#7M
Don't think of the danger or the stranger is gone
B                 F#   E           B
This dream is for you, so pay the price
E                   F#                  B
Make one dream come true, you only live twice 

 C#dim         [x45x5x]

lead part
intro
repat X 5
E|-7-6h7p6---------|
B|-----------------|
G|-----------------|
D|-----------------|
A|-----------------|
E|-----------------|

riff 1
E|--15-14h15p14---12h14p12--------13-12h13p12------------------|
B|--------------------------15----------------15h17p15--13-----|
G|-------------------------------------------------------------|
D|-------------------------------------------------------------|
A|-------------------------------------------------------------|
E|-------------------------------------------------------------|

riff 2
E|-7-6h7p6-4h6p4----5-4h5p4------------------------|
B|---------------7----------7h9p7-5------7p4-4-----|
G|-------------------------------------------------|
D|-------------------------------------------------|
A|-------------------------------------------------|
E|-------------------------------------------------|
reproducciones 447
Acordes para:
    Composição: John Barry / Leslie Bricusse Colaboración y revision:
    • Camilly Leite

    0 comentarios

    mostrar más comentarios

    ¿Conseguiste tocar?

    0 tocaron 0 aún no

    ¡Graba un vídeo tocando You Only Live Twice y envianoslo!

    00:00 / 00:00
    outros vídeos desta música
    repetir qualidade Automático
    Outros vídeos desta música
    00:00 / 00:00
    Automático
    OK