Cifra Club

Águia Filhote

Cólera

Cifrado: Principal (guitarra y guitarra eléctrica)
tono: C
Dedilhado:
E|----------------------------------------|
B|----------------------------------------|
G|-------------------------------------2--|
D|-----2h3--2-0----------2h3--2-0------2--|
A|---0----------1-3-0--0----------1-3--0--|
E|----------------------------------------|

E|--------------------------------------------------------------------|
B|--------------------------------------------------------------------|
G|---2--2----3--3----5--5-3---2--2-----2--2----3--3----5--5----7--7---|
D|--2--2----3--3----5-5------2--2-----2--2----3--3----5--5----7--7----|
A|-0--0--0-1--1--1-3---3-1--0--0--0--0--0--0-1--1--1-3--3--3-5--5--5--|
E|--------------------------------------------------------------------|

E|---------0------|
B|-----0--0---0---|
G|----1--1--------|
D|---2--2---------|
A|--2-------------|
E|-0--------------|


Intro: 

E|--000-000-000-000-000-000-333-333--|
B|--111-333-111-333-111-333-000-333--|
G|--222-222-222-222-000-000-000-000--|  2X
D|--222-222-222-222-222-222-000-000--|
A|--000-000-000-000-333-333-222-222--|
E|--000-000-000-000-000-000-333-333--|

Am
Veja eu me enganando
C              G
Você se engana também
Am
Veja a vida me ensinando
C               G
Quero aprender, quero viver
Am
Quero me olhar no espelho
C             G
Como se fosse você
Am
Quero ser meu grande amigo
C               G
E me sentir bem, bem, bem
F                            G
Veja a criança tentando andar
Am                            G
Você já tentou também
F                             G
Veja os velhos largados por lá
Am                G
Nós vamos também envelhecer
Am              Bb
Todo mundo tem problemas
C                 Am
Poucos tem garras pra superar
Am                   Bb
Muitos julgam acham coisas
C                  D
Olham no espelho e não enxergam não
E                          Am C G
Não há nada por lá, não há
Am
Veja a águia filhote
C                        G
Está aprendendo voar
Am
Vai, cai e se levanta
C                   G
Até alcançar se superar
F                                G
Se você não se virar pro espelho
Am                                 G
Sempre vai ter esse vulto por trás
F                                G
Um vulto estranho que te dá medo
Am             G
Não corra não, é só você
Am              Bb
Todo mundo tem problemas
C                 Am
Poucos tem garras pra superar
Am                   Bb
Muitos julgam acham coisas
C                  D
Olham no espelho e não enxergam não
E                          Am C G Am C G
Não há nada por lá, não há

Am
O mundo dá voltas, o mundo dá voltas
C                       G
E a vida se entorta pra gente enxergar
Am
O mundo dá voltas, o mundo dá voltas
C                       G
E a vida se entorta pra gente enxergar
Am
O mundo da volta...as
C                                G
E a gente volta pra se reencontra...ar
Am                  C         G   Am C G Am
E a gente volta pra se reencontrar
Composición de Redson
Colaboración y revisión:
  • Ton Santos
  • rafael
151 vistas
    • ½ Tono
    • A
    • Bb
    • B
    • C
    • Db
    • D
    • Eb
    • E
    • F
    • F#
    • G
    • Ab
  • Agregar a la lista

    0 comentarios

    Ver todos los comentarios

    ¿Lograste tocar?

    4 Tocaron 0 Aún no

    ¡Graba un video tocando Águia Filhote y envíanoslo!

    00:00 / 00:00
    Otros videos de esta canción
    Repetir Calidad Automático
    Otros videos de esta canción
    00:00 / 00:00
    Automático
    OK