Cifra Club

Aprenda

Caos Mental Geral

Cólera

Tablatura: Principal (guitarra)
Tom: F
O Começo ai é a intro

E|-
B|-
G|--------------------------------------------10----------------------------------------------
D|------12-12-10-8-10-------------12-12-10-12---10-10------12-12-10-8-10-------8-10-----------
A|-8-10----------------10-10---10---------------------8-10---------------10-10-------12-8-10--
E|-



E|-
B|-
G|-
D|-5--5-5--5-5--||
A|-5--5-5--5-5--||  4x Palm Mute ( PM )
E|-3--3-3--3-3--||


E|-
B|-
G|-
D|-8--8-8--8-8--||
A|-8--8-8--8-8--||   4x Palm Mute ( PM )
E|-6--6-6--6-6--||

E|-
B|-
G|------7-7----||
D|-8-8--7-7----||
A|-8-8--5-5----||  Palm Mute ( PM )
E|-6-6---------||

E|-
B|-
G|-8-8-8-8-8-8-8-8-8-8-8-8---10-10--8-8--7-7-7-5--7-7-7-5--7-7-7-7--5-5--3-3--||
D|-8-8-8-8-8-8-8-8-8-8-8-8---10-10--8-8--7-7-7-5--7-7-7-5--7-7-7-7--5-5--3-3--||
A|-6-6-6-6-6-6-6-6-6-6-6-6---8--8---6-6--5-5-5-3--5-5-5-3--5-5-5-5--3-3--1-1--||
E|----------------------------------------------------------------------------||


Esses Riffs Ai são os mesmo de cima só juntei pra verem como que fica ele por inteiro pode ser melhor..



E|-
B|-
G|---------------------------------7-7---8-8-8-8-8-8-8-8-8-8-8-8---10-10--8-8--7-7-7-5--7-7-7-5--7-7-7-7--5-5-||
D|-5--5-5--5-5---8--8-8--8-8---8-8-7-7---8-8-8-8-8-8-8-8-8-8-8-8---10-10--8-8--7-7-7-5--7-7-7-5--7-7-7-7--5-5-||
A|-5--5-5--5-5---8--8-8--8-8---8-8-5-5---6-6-6-6-6-6-6-6-6-6-6-6---8--8---6-6--5-5-5-3--5-5-5-3--5-5-5-5--3-3-||
E|-3--3-3--3-3---6--6-6--6-6---6-6----------------------------------------------------------------------------||
 ( 4x PM     ) ( 4x  PM    ) ( PM    )

E|-
B|-
G|-3-3--||
D|-3-3--||
A|-1-1--||
E|------||








Depois repete os mesmos Riffs Sò que em Uma batida só E deixando soar o som Vou Colocar ( ~~ ) Onde deixa soar:
Vou Chamar Essa Parte de PASSAGEM...



E|-
B|-
G|---------------7-8~~ -10-8-7--5-7-5-7--5-3--||
D|-5~~ -5-8~~ -8-7-8~~ -10-8-7--5-7-5-7--5-3--||
A|-5~~ -5-8~~ -8-5-6~~ -8--6-5--3-5-3-5--3-1--||  PASSAGEM
E|-3~~ -3-6~~ -6------------------------------||



Ai na mesma hora que faz esse riff por completo começa a fazer parecido com os riffs...
E Depois levanta os dedos ainda com os dedos na corda,Pra fazer aquele som abafado...


Ouça O medo A Sussurrar....

E|-
B|-
G|---------------------7-8x--8~~ -10-8-7--5-7-5-7---5--3--||
D|-5x--5~~ -8x--8~~ -8-7-8x--8~~ -10-8-7--5-7-5-7---5--3--||
A|-5x--5~~ -8x--8~~ -8-5-6x--6~~ -8--6-5--3-5-3-5---3--1--||
E|-3x--3~~ -6x--6~~ -6------------------------------------||




Depois vem esta parte Onde dá palhetadas rapida na corda..



QUando Os jovens se rastejam...
Temem sombras Da Verdade..

E|-
B|-
G|-
D|-
A|-
E|-3333333333333333--||
  ****************


Ai Vem O refrão


Caos Mental Geraaaaal

E|-
B|-
G|-12-12--12--8-8--8----------10-10--10-----||
D|-12-12--12--8-8--8--8-8--8--10-10--10-----||
A|-10-10--10--6-6--6--8-8--8--8--8---8------||
E|--------------------6-6--6----------------||





Depois Do Refrão FAz a '' PASSAGEM '' E Repete A mesma COisa até o refrão




Ai vem a parte do Solo do baixo Onde A guitarra fica no palm mute
Faz a ''passagem'' no PALM MUTE Primeiro,e Depois Faz  Isso é só prestar atençao a musica e voce pega


E|-
B|-
G|-
D|-5-5--5-5-5--||
A|-5-5--5-5-5--||
E|-3-3--3-3-3--||

Palm Mute


Tem Uma hora que a guitarra faz isso que é pra eles darem aquele grito na metade do solo '' Antes do Grito ''




E|-
B|-
G|-3--2------||
D|-3--2--5---||
A|-1--0--5---||
E|-------3---||


Ai depois do grito vem isso


E|-
B|-
G|------5~~ -------10~~ -------5~~ --3--2-----||
D|-5~~ -5~~ --5~~ -10~~ --5~~ -5~~ --3--2--5--||
A|-5~~ -3~~ --5~~ -8~~~ --5~~ -3~~ --1--0--5--||
E|-3~~ -------3~~ --------3~~ -------------3--||



A ultima Parte agora é No refrão na 5 vez do refrão onde só fica a guitarra tocando....
Ele da palhetadas rapidas Primeiro toca o riff depois as palhetadas...


E|-
B|-
G|-12------------------8---------------------10--------------||
D|-12------------------8---------8-----------10--------------||
A|-10-101010101010-----6-666666--8-----------8---888888------||
E|-------------------------------6--666666-------------------||

Repete Duas Vezes e depois continua normal o refrão...


Musica muito Simples e Foda, E agradeceria se a alguem ajuda-se com a tablatura do baixo desta musica..

VLWW ,
Compositor Redson
Colaboración y revision:
  • Alberty Leandro
  • garcy neto
40 reproducciones
    • ½ Tom
    • A
    • Bb
    • B
    • C
    • Db
    • D
    • Eb
    • E
    • F
    • F#
    • G
    • Ab
  • Adicionar à lista

    0 comentarios

    Mostrar mais comentários

    ¿Conseguiste tocar?

    1 Tocaron 0 Ainda não

    Grave um vídeo tocando Caos Mental Geral e mande pra gente!

    00:00 / 00:00
    outros vídeos desta música
    repetir qualidade Automático
    Outros vídeos desta música
    00:00 / 00:00
    Automático

    Cifra Club Pro

    Aproveite o Cifra Club com benefícios exclusivos e sem anúncios
    7 dias grátis
    Cifra Club Pro
    Aproveite o Cifra Club com benefícios exclusivos e sem anúncios
    7 dias grátis
    OK