Cifra Club

Aprenda

Deixe a terra em paz

Cólera

Tablatura: Principal (guitarra)
Tom: G
E- G  E- G  E- G A B

  E-    G     E-         G
Tratores derrubando a Amazônia
  E-        G      B
Camada de Ozônio, ferida sangrando
  E-   G   E-       G
Matança, egoísmo em massa
E-        G
É uma emergência!!!
B
É uma emergênciaaaaaaa!!!

Riff 1
e||--------------------------------------------------|
B||--------------------------------------------------|
G||--9-9-9-12-12-12------9-9-9-12-14-16-16-16-16-----|
D||--9-9-9-12-12-12------9-9-9-12-14-16-16-16-16-----|
A||--7-7-7-10-10-10-(2x)-7-7-7-10-12-14-14-14-14-----|
E||--------------------------------------------------|

E- G E- G E- G A B

  E-   G      E-        G
A Terra, um lugar pra morar
E-        G            B
Tem muita mata, muita chuva e tem ar
  E-  G       E-       G
Espera só pra ver os leões,
  E-        G            B
As aves, os peixes e os imensos vulcões

REFRÃO
E-            G
Bicho gente está doente
E-            G
Mata o mundo, mata gente
C
Parem as guerras
D                E-   G
Deixe a Terra em paz!
         E-  G   E-   G
Deixe a Terra em paz!
        B
Deixe a Terra em paz!

E- G E- G E- G A B
RIFF 1

  E-   G    E-       G
A Terra, universo plural
  E-   G         B
A biodiversa estrutura que gira
     E- G       E-       G
Tem hora para o céu clarear
  E-       G            B
Comida pra todos, é um enorme quintal

(REFRÃO)

RIFF 1 (2x)

RIFF 2
base: E G E G C D  (a mesma base de "Bicho gente está doente...")
e||-----------------------------------------------------|
B||-----------------------------------------------------|
G||-----------------------------------------------------|
D||--9----9------12----12-------------5---5---7---7-----|
A||---7----7-------10----10--(2x)------3---3---5---5----|
E||-----------------------------------------------------|

E- G        E-  G E-  G
Já! Salve a Terra Já!
        B
Salve a Terra Já!
E- G        E-  G E-  G
Já! Salve a Terra Já!
        B
Salve a Terra Já!

[abrafado]
E- G E- G E- G A B

        E-  G        E-     G
"O planeta azul sendo exterminado"
E- G A B
[/abafado]

  E-   G         E-        G
A Terra, tem sua vida, seu ar
  E-        G             B
Um ar de planeta que quer sempre girar
  E-  G      E-       G
A vida é o motivo que faz
    E-            G
Que faz com que a gente
        B
Deixe a Terra em paz!

(refrão)
Colaboración y revision:
  • Thiago Costa
  • Junior Chaguri
50 reproducciones
    • ½ Tom
    • A
    • Bb
    • B
    • C
    • Db
    • D
    • Eb
    • E
    • F
    • F#
    • G
    • Ab
  • Adicionar à lista

    0 comentarios

    Mostrar mais comentários

    ¿Conseguiste tocar?

    2 Tocaron 0 Ainda não

    Grave um vídeo tocando Deixe a terra em paz e mande pra gente!

    00:00 / 00:00
    outros vídeos desta música
    repetir qualidade Automático
    Outros vídeos desta música
    00:00 / 00:00
    Automático

    Cifra Club Pro

    Aproveite o Cifra Club com benefícios exclusivos e sem anúncios
    7 dias grátis
    Cifra Club Pro
    Aproveite o Cifra Club com benefícios exclusivos e sem anúncios
    7 dias grátis
    OK