Cifra Club

Aprenda

Doce Libertar

Cólera

Tab de bajo: Principal
Parte 1
G--------------------------------------------------------------------------------------------
D--3--2----------3--2----------------------3--2--------3--2------------------3--2------------
A--------5--3-----------5--2--3-2-0-------------5--3---------5--2--3-2-0------------5--3------
E------------------------------------3------------------------------------3------------------

Parte 2
G----------------------------------
D----------------------------------
A---0---0-3---3-5---3-5-5--3-5-7----
E-----------------------------------

Variação Parte 2
A--0---0-3--3-5---3-5-5--3-5-3-5---

Parte 3
G------------------------------------------
D-------------------------------------------
A-0---3---3-5--3-5-5---3-5---3-5-5--3-5--3-
E----------------- ------------------------

G-----------------------------------------------------
D-----------------------------------------------------
A---------------------0-2-3--3-2--2--5-5-3-0-----0-2-3-
E-3---3--3-2-1--1--3-----------------------------------

G----------------------------------------------------------
D----------------------------------------------------------
A--5-5-3-0---0-2-0-----------------------------------------
E------------------3-0---3--5--3-5-5--5-7--0----3-5--3-5-5-

Parte 4
G------------------------------------------------
D------------------------------------------------
A------------------------------------------------
E-0---3--5--3-5-5--5-7--0----3-5--3-5-5---------


Ordem para tocar

Parte 1
Parte 2 5x
Parte 3
Parte 2 5x
Parte 3
Parte 2 3x
Parte 3
Parte 4 2x
Parte 1
Compositor Redson
Colaboración y revision:
  • Alonso Afonso
2 reproducciones

0 comentarios

Mostrar mais comentários

¿Conseguiste tocar?

0 Tocaron 0 Ainda não

Grave um vídeo tocando Doce Libertar e mande pra gente!

00:00 / 00:00
outros vídeos desta música
repetir qualidade Automático
Outros vídeos desta música
00:00 / 00:00
Automático
OK