Cifra Club

Aprenda

Guerrear

Cólera

Tablatura: Principal (guitarra)
tono: E
NÓS NÃO NASCEMOS PRA GUERREAR!
NÓS NÃO NASCEMOS PRA GUERREAR!

:B5:C5:G5:A5:B5:C5:D5:A5:
:B5:C5:G5:A5:B5:C5:D5:

   E5     D5   E5     G5   E5     D5   E5
E|-----------:-----------:-----------:----------:
B|-----------:-----------:-----------:----------:
G|-----------:---------7-:-----------:----------:
D|-9-9-9-9-7-:-9-9-9-9-5-:-9-9-9-9-7-:-9-9-9-9--:
A|-7-7-7-7-5-:-7-7-7-7---:-7-7-7-7-5-:-7-7-7-7--:
E|-----------:-----------:-----------:----------:

B5            C5         G5     A5
 Foram sábios cientistas a inventar
B5     C5       D5     A5
Sábios projetos para curar
B5     C5     G5         A5
E os governos pra aproveitar
B5     C5   D5
Usaram tudo para GUERREAR!

   E5     D5   E5     G5   E5     D5   E5
E|-----------:-----------:-----------:----------:
B|-----------:-----------:-----------:----------:
G|-----------:---------7-:-----------:----------:
D|-9-9-9-9-7-:-9-9-9-9-5-:-9-9-9-9-7-:-9-9-9-9--:
A|-7-7-7-7-5-:-7-7-7-7---:-7-7-7-7-5-:-7-7-7-7--:
E|-----------:-----------:-----------:----------:

      B5       C5    G5       A5
Foram mortos milhões de seres humanos
B5     C5    D5     A5
Exterminados como insetos
B5      C5    G5         A5
 E toda honra foi pros governos
B5       C5      D5
Que usam pessoas para GUERREAR!

   E5     D5   E5     G5   E5     D5   E5
E|-----------:-----------:-----------:----------:
B|-----------:-----------:-----------:----------:
G|-----------:---------7-:-----------:----------:
D|-9-9-9-9-7-:-9-9-9-9-5-:-9-9-9-9-7-:-9-9-9-9--:
A|-7-7-7-7-5-:-7-7-7-7---:-7-7-7-7-5-:-7-7-7-7--:
E|-----------:-----------:-----------:----------:

sOLO:
(Atenção: a guitarra difere um pouco do baixo no final dos solos)

   B5    C5    G5    A5      B5    C5  D5 C5 D5 C5 B5 A5
E|-------------------------:-----------------------------:
B|-7-7-7-8-8-8-------------:-7-7-7-8---10-8--10-8--7-----:
G|-4-4-4-5-5-5-7-7-7-9-9-9-:-4-4-4-5---7--5--7-----4--9--:
D|-------------5-5-5-7-7-7-:--------------------------7--:
A|-------------------------:-----------------------------:
E|-------------------------:-----------------------------:

   B5    C5    G5    A5      B5    C5  D5
E|-------------------------:------------------------:
B|-7-7-7-8-8-8-------------:-7-7-7-8-10-8-10--------:
G|-4-4-4-5-5-5-7-7-7-9-9-9-:-4-4-4-5-7--5-7---------:
D|-------------5-5-5-7-7-7-:------------------------:
A|-------------------------:------------------------:
E|-------------------------:------------------------:

   E5     D5   E5     G5   E5     D5   E5
E|-----------:-----------:-----------:----------:
B|-----------:-----------:-----------:----------:
G|-----------:---------7-:-----------:----------:
D|-9-9-9-9-7-:-9-9-9-9-5-:-9-9-9-9-7-:-9-9-9-9--:
A|-7-7-7-7-5-:-7-7-7-7---:-7-7-7-7-5-:-7-7-7-7--:
E|-----------:-----------:-----------:----------:

B5            C5         G5     A5
 Foram sábios cientistas a inventar
B5     C5       D5     A5
Sábios projetos para curar
B5     C5     G5         A5
E os governos pra aproveitar
B5     C5   D5         E5
Usaram tudo para GUERREAR!
Composição de Redson
Colaboración y revision:
  • Gabriel Fox
11 reproducciones
    • ½ Tono
    • A
    • Bb
    • B
    • C
    • Db
    • D
    • Eb
    • E
    • F
    • F#
    • G
    • Ab
  • Adicionar à lista

    0 comentarios

    Ver todos os comentários

    ¿Conseguiste tocar?

    0 Tocaram 0 Ainda não

    Grave um vídeo tocando Guerrear e nos envie!

    00:00 / 00:00
    outros vídeos desta música
    repetir qualidade Automático
    Outros vídeos desta música
    00:00 / 00:00
    Automático
    OK