Cifra Club

Humanidade

Cólera

Cifrado: Principal (guitarra y guitarra eléctrica)
tono: E
Intro: :C5:F5:E5:C5:F5:E5 D5 E5: 2X
       :A5:
       
       E|---------------------------------------|
       B|---------------------------------------|
       G|---------------------------------------|
       D|---------------------------------------|
       A|---------------------------------------|
       E|-5-5-3-5-5-3-5-5-3-5-5-3-5-5-3-5-5-5-3-|

       E|---------------------------------------|
       B|---------------------------------------|
       G|---------------------------------------|
       D|---------------------------4-5-7-------|
       A|---0-0-0-2-2-2-3-3-3-5-5-5-------------|
       E|---------------------------------------|

A5                B5     
Pense mais na sua vida
   C5          D5
Na situação do mundo
A5                  B5
Lute mais pela existência

Da justiça e da Liberdade!

C5         F5  E5
POR TODA HUMANIDADE
C5        F5    E5 D5 E5
POR TODAS VIDAS EM GERAL.

       E|---------------------------------------|
       B|---------------------------------------|
       G|---------------------------------------|
       D|---------------------------------------|
       A|---------------------------------------|
       E|-5-5-3-5-5-3-5-5-3-5-5-3-5-5-3-5-5-5-3-|

       E|---------------------------------------|
       B|---------------------------------------|
       G|---------------------------------------|
       D|---------------------------4-5-7-------|
       A|---0-0-0-2-2-2-3-3-3-5-5-5-------------|
       E|---------------------------------------|

A5               B5
Muitas vidas são perdidas
   C5             D5
Em becos ou experiências,
A5         B5        C5
Precisamos fazer um apelo
               D5 
Contra esse mercado. 

C5         F5  E5
POR TODA HUMANIDADE
C5        F5    E5 D5 E5
POR TODAS VIDAS EM GERAL


       E|---------------------------------------|
       B|---------------------------------------|
       G|---------------------------------------|
       D|-7-7-5-7-7-5-7-7-5-7-7-5-7-7-5-7-7-7-5-|
       A|---------------------------------------|
       E|---------------------------------------|

       E|---------------------------------------|
       B|---------------------------------------|
       G|---------------------------------------|2x
       D|---------------------------------------|
       A|-3-3-3-3-3-3-3-3-2-0-----------5-5-5-5-|
       E|---------------------3-3-3-3-3---------|

Início do Solo:
       E|-----------------------------------------|
       B|-----------------------------------------|
       G|-7-5-5-5-5-7-5-5-5-5-7-5-5-5-5-7-5-3-----|
       D|-------------------------------------7-5-|
       A|-----------------------------------------|
       E|-----------------------------------------|
(Solo...)

C5         F5  E5
POR TODA HUMANIDADE
C5        F5    E5 D5 E5
POR TODAS VIDAS EM GERAL

       E|---------------------------------------|
       B|---------------------------------------|
       G|---------------------------------------|
       D|-7-7-5-7-7-5-7-7-5-7-7-5-7-7-5-7-7-7-5-|
       A|---------------------------------------|
       E|---------------------------------------|
Composición de Redson
Colaboración y revisión:
  • Gabriel Fox
36 vistas
    • ½ Tono
    • A
    • Bb
    • B
    • C
    • Db
    • D
    • Eb
    • E
    • F
    • F#
    • G
    • Ab
  • Agregar a la lista

    0 comentarios

    Ver todos los comentarios

    ¿Lograste tocar?

    0 Tocaron 0 Aún no

    ¡Graba un video tocando Humanidade y envíanoslo!

    00:00 / 00:00
    Outros vídeos desta música
    Repetir Calidad Automático
    Outros vídeos desta música
    00:00 / 00:00
    Automático
    OK