Cifra Club

Aprenda

Medo

Cólera

Tablatura: Principal (guitarra)
tono: D
Introdução
E|-
B|-------------------10-8---------------------||
G|---6-7-9------7---------9-7-----------7-----||
D|-7----------5---7-----------7---77--5----7--||
A|-
E|-

E|-
B|-
G|-
D|-5-7--5-7--5-7--5-7--5-7--5-7--||
A|-5-7--5-7--5-7--5-7--5-7--5-7--||  Aqui é o começo,Mais essa parte acho que esta errada
E|-3-5--3-5--3-5--3-5--3-5--3-5--||

Mais agora o Resto está certo

E|-
B|-
G|--------------------------6-7-6--||
D|-7-7-7-7-7-7-7-7-7-7-7-7--6-7-6--||  4x
A|-7-7-7-7-7-7-7-7-7-7-7-7--4-5-4--||
E|-5-5-5-5-5-5-5-5-5-5-5-5---------||

E|-
B|-
G|-----------------7-7-7-7-7-7-7-7---------------------------6-7-6--||
D|-5-5-5-5-5-5-5-5-7-7-7-7-7-7-7-7--7-7-7-7-7-7-7-7-7-7-7-7--6-7-6--||
A|-5-5-5-5-5-5-5-5-5-5-5-5-5-5-5-5--7-7-7-7-7-7-7-7-7-7-7-7--4-5-4--||
E|-3-3-3-3-3-3-3-3------------------5-5-5-5-5-5-5-5-5-5-5-5---------||

E|-
B|-
G|--------------------------6-7-6--||
D|-7-7-7-7-7-7-7-7-7-7-7-7--6-7-6--||  2x
A|-7-7-7-7-7-7-7-7-7-7-7-7--4-5-4--||
E|-5-5-5-5-5-5-5-5-5-5-5-5---------||

E|-
B|-
G|-----------------7-7-7-7-7-7-7-7---------------------------6-7-6--||
D|-5-5-5-5-5-5-5-5-7-7-7-7-7-7-7-7--7-7-7-7-7-7-7-7-7-7-7-7--6-7-6--||
A|-5-5-5-5-5-5-5-5-5-5-5-5-5-5-5-5--7-7-7-7-7-7-7-7-7-7-7-7--4-5-4--||
E|-3-3-3-3-3-3-3-3------------------5-5-5-5-5-5-5-5-5-5-5-5---------||

E|-
B|-
G|-7-7-7-7-7-7-7-7-----------------7-7-7-7-7-7-7-7------------------||
D|-7-7-7-7-7-7-7-7-7-7-7-7-7-7-7-7-7-7-7-7-7-7-7-7-7-7-7-7-7-7-7-7--||
A|-5-5-5-5-5-5-5-5-7-7-7-7-7-7-7-7-5-5-5-5-5-5-5-5-7-7-7-7-7-7-7-7--||
E|-----------------5-5-5-5-5-5-5-5-----------------5-5-5-5-5-5-5-5--||

E|-
B|-
G|-12--7-----------------------------------||
D|-12--7--7-7-7-7-7-7-7-7-7-7-7-7-7-7-7-7--||
A|-10--5--7-7-7-7-7-7-7-7-7-7-7-7-7-7-7-7--||  2x
E|--------5-5-5-5-5-5-5-5-5-5-5-5-5-5-5-5--||



(SOLO)


     e|---------------------------------------------------------------------
     B|----------------------------7-8-7-----7------------------------------
     G|----6-7-9-7-6-----6-7-9-7-9-------9-7---9-7-6--6-9-7-6-9-7-6---------
     D|--7-----------7-7--------------------------------------------7-------
     A|---------------------------------------------------------------------
     E|---------------------------------------------------------------------

     e|---------------------------------------------------------------------
     B|----------------------------7-8-10-8-77-----7------------------------
     G|----6-7-9-7-6- ---6-7-9-7-9-------------9-7---9-7-6--6-9-7-6-9-7-6---
     D|--7-----------7-7--------------------------------------------------7-
     A|---------------------------------------------------------------------
     E|---------------------------------------------------------------------



Depois é só encaixar os riffs ouvindo a musica.
Composição de Redson
Colaboración y revision:
  • Alberty Leandro
44 reproducciones
    • ½ Tono
    • A
    • Bb
    • B
    • C
    • Db
    • D
    • Eb
    • E
    • F
    • F#
    • G
    • Ab
  • Adicionar à lista

    0 comentarios

    Ver todos os comentários

    ¿Conseguiste tocar?

    1 Tocaram 0 Ainda não

    Grave um vídeo tocando Medo e nos envie!

    00:00 / 00:00
    outros vídeos desta música
    repetir qualidade Automático
    Outros vídeos desta música
    00:00 / 00:00
    Automático
    OK