Cifra Club

Aprenda

Meu Igual

Cólera

Tablatura: Principal (guitarra)
tono: C
Versão 1
-======-

Intro: (G# C F C# D# ) 2X

G#           C                  F 
Sozinho não dá, eu não vou aguentar
C#        D#   G# C# G# D# G# G F 
Vem meu igual!                    Oh Oh
G#           C                  F 
Sozinho não dá, eu não vou aguentar
C#        D#  
Vem meu igual
G#             C
Seja qualquer cor!
         F   C#        D#
De onde for. Vem meu igual
C           C# C             Bb C
Quando vamos   para o "pogo"
             C#        D#
Somos um só, vem meu igual
G#   C#        G#
aah! vem meu igual
     D#        G#  G F
aah! vem meu igual     Oh Oh
e|-------------------
b|-------------------
g|---5---------------  
d|-6---8-6-5---------
a|-------------------
E|-------------------
(solo) G# C# G# D# G# 
G#                  C
Quando a força aumentar
                 F     C#        D# 
Quando o grave vibrar, vem meu igual
G#            C            F    C#        D#
seja qualquer cor, de onde for. Vem meu igual
C           C# C             Bb C
Quando vamos   para o "pogo"
             C#        D#
Somos um só, vem meu igual
G#   C#        G#
aah! vem meu igual
     D#        G#  
aah! vem meu igual 
G#   C#        G#
aah! vem meu igual
     D#        G#  G F       G#
aah! vem meu igual     Oh Oh
 



_______________________________________________________





Versão 2
-======-

Intro (2xs) (baixo)
  G                    B                          E
G----------------------------------------------------------------------
D-------------------------------------------------12---------12--------
A-9h10---9-10-12-10-12-14---12-14-14-12-14-12-14----15-14-12---15-14-12-
E-----------------------------------------------------------------------
  C                                 D
G-----------------------------------------------------------------------
D-----------------------------------------------------------------------
A-15-14-12-14-12-10-12-10-9-10-9-7-9-7-5-7-5-3-5-3-2-3-2-0--------------
E----------------------------------------------------------3------------

Intro (guitarra)
  G   B  E    C   D    
E------------------------------------------------------------------------------------
B------------------------------------------------------------------------------------
G-----4-------5---7------------------------------------------------4-------------4---
D-5---4---2---5---7----------------5---------------5---------4--------------4--------
A-5---2---2---3---5----------5---------------5---------2-2-2---2-2---2-2-2-2--2-2----
E-3-------0------------3-3-3---3-3---3-3-3-3---3-3-----------------------------------
  (      p.m.      )

E-----------------------------------------------------------------------
B-----------------------------------------------------------------------
G-----------------------------------------5---------------7-------------
D-------------2------------2--------5---------------7-------------------
A-------2-------------2-------3-3-3---3-3----5-5-5-5---5-5--------------
E-0-0-0---0-0--0-0-0-0--0-0---------------------------------------------

Verso
  G   B   E   C   D
E---------------------
B---------------------
G-----4-------5---7---
D-5---4---2---5---7---
A-5---2---2---3---5---
E-3-------0-----------
  (      p.m.      )

Segue com...
  G   C   G   D
E-3-------3-----------------
B-3-------3-----------------
G-4---5---4---77x7xx7x777---
D-5---5---5---77x7xx7x777---
A-5---3---5---55x5xx5x555---
E-3-------3-----------------
  G   G F#E      G   B  D#/F        C   D   G   B   E   C   D    
E---------------------------------------------------------------
B---------------------------------------------------------------
G--------(p.m.)------4---8-9--------5---7-------4-------5---7---
D-5---5-4-2...---5---4---8-9--------5---7---5---4---2---5---7---
A-5---5-4-2...---5---2---6/7-(4x)---3---5---5---2---2---3---5---
E-3---3-2-0...---3--------------------------3-------0-----------

"Quando vamos..."
  B   C   B   A   B   C   D
E-----------------------------
B-----------------------------
G-4---5---4---2---4---5---7---
D-4---5---4---2---4---5---7---
A-2---3---2---0---2---3---5---
E-----------------------------

Refrão
  G         C   G    G        D   G  
E---3-----------------3---------------
B---3-----------------3---------------
G---4-(4xs)-5---------4-(4xs)-7-------
D-5---------5---5---5---------7---5---
A-5---------3---5---5---------5---5---
E-3-------------3---3-------------3---

Pós
  G   B   E 
E-------------------------------------
B-------------------------------------
G--------(p.m)------------------------
D-5---4---2...------------------------
A-5---4---2...------------------------
E-3---2---0...------------------------

Solo (1:47)
  G         B
E-------------------2/333-2/333-6-3-3-6-3-6b7-3--------------6b7-3-3-6-3-3-6-3-3-6-3-6-3-3--10-8-10-8-10-8-10-8--15-151515-
B-------------------2/333-2/333----------------6-3-6-3-6-3-6----------------------------6------------------------15-151515-
G-0-2h4-2-0----------------------------------------------------------------------------------------------------------------
D-----------4--------------------------------------------------------------------------------------------------------------
A--------------------------------------------------------------------------------------------------------------------------
E--------------------------------------------------------------------------------------------------------------------------

Base do Solo : G C G D G

Verso
  G   B  D#/F        C   D   G   B   E   C   D    
E------------------------------------------------
B------------------------------------------------
G-----4---8-9--------5---7-------4-------5---7---
D-5---4---8-9--------5---7---5---4---2---5---7---
A-5---2---6/7-(4x)---3---5---5---2---2---3---5---
E-3--------------------------3-------0-----------
                             (  p.m.  )

"Quando vamos..."

Refrão (2xs)

Pós

Final
  G 
E---
B---
G---
D-5-
A-5-
E-3-
Colaboración y revision:
  • Gabriel Silva
13 reproducciones
    • ½ Tono
    • A
    • Bb
    • B
    • C
    • Db
    • D
    • Eb
    • E
    • F
    • F#
    • G
    • Ab
  • Adicionar à lista

    0 comentarios

    Ver todos os comentários

    ¿Conseguiste tocar?

    0 Tocaram 0 Ainda não

    Grave um vídeo tocando Meu Igual e nos envie!

    00:00 / 00:00
    outros vídeos desta música
    repetir qualidade Automático
    Outros vídeos desta música
    00:00 / 00:00
    Automático
    OK