Cifra Club

Qual A Violência

Cólera

Cifrado: Principal (guitarra y guitarra eléctrica)
tono: B
Final de século, o mundo vive uma convulsão social
As pessoas vivem explosões emocionais
Neurose, ganância, obsessão, vingança
E até mesmo a ignorância são símbolos de uma pseudo-honra para a maioria das pessoas
Ter é mais importante do que ser
Mas não para mim
Eu não sou assim
Eu sinto a indignação e quero um mundo melhor
E quero que esse grito não seja em vão
A voz da selva, dos animais, dos indígenas

e|----------------------------------------------------|
b|----------------------------------------------------|
g|----------------------------------------------------|
d|------------------------------------9-9-9-9-9-9-9-9-|
a|--7-7-7-7-7-7-7-7--9-9-9-9-9-9-9-9------------------|
e|----------------------------------------------------|

e|----------------------------------------------------------------------|
b|----------------------------------------------------------------------|
g|----------------------------------------------------7-----------------|
d|------------------------------------9-9-9-9-9-9-9-9---9-9-9-9-9-9-9---|
a|--7-7-7-7-7-7-7-7--9-9-9-9-9-9-9-9------------------------------------|
e|----------------------------------------------------------------------|


E5        F#5        B5   E5       F#         B5
  Qual violência é pior!?? qual violência é pior!??
E5         F#5       B5
  Quero um mundo melhor
E5          F5            B5
Será que esse grito é em vão

Não é não!

Solo 2

e|------------------------------------------|
b|------------------------------------------|
g|----------------------8-9-11--9-8---------|
d|----6-------8-----8/9---------------------|
a|--7---7---9---9---------------------------|
e|------------------------------------------|

(E5 F#5 B5)

E5
Geração do ódio que copia a crueldade
Da estúpida hipnose na tv. qual violência é pior!??
Fome, indigência e o racismo, invalidando
Intimidando muita gente e você. qual violência é pior!??

E5        F#5        B5
  Qual violência é pior
E5        F#5        B5
  Quero um mundo melhor
E5             F#5
Qual violência, qual decadência
B5         A#5   G#5
Quanta indignação
E5           F#5           B5
Será que esse grito é em vão!??

e|------------------------------------------|
b|------------------------------------------|
g|----------------------8-9-11--9-8---------|
d|----6-------8-----8/9---------------------|
a|--7---7---9---9---------------------------|
e|------------------------------------------|

e|-------------------------------------------------|
b|-------------------------------------------------|
g|------9-8-6---6-8-8-6-------9-8-6---6-8--6-------|
d|------------9---------9-----------9--------9-----|
a|---7---------------------7-----------------------|
e|-------------------------------------------------|

E5
Gente inventando, fabricando, construindo armamento
Que só serve pra matar. qual violência é pior?
Índios sem direitos, sem respeito, reservados como gado
Em sua selva em carvão. qual violência é pior?

E5        F#5        B5
  Qual violência é pior
E5        F#5        B5
  Quero um mundo melhor
E5             F#5
Qual violência, qual decadência
B5         A#5   G#5
Quanta indignação
E5           F#5           B5
Será que esse grito é em vão!??

G#5                    F#5
Hoje as crianças estão tristes
G#5                   F#5
Os velhos olham com vontade de voltar e lutar
G#5                     F#5
Existem ódios, existem armas
G#5                          F#5
Mas eu só sei que nós podemos ser o exemplo
B5
Desse grito de razão

(E5 F#5 B5)

E5        F#5        B5
  Qual violência é pior
E5        F#5        B5
  Quero um mundo melhor
E5             F#5
Qual violência, qual decadência
B5         A#5   G#5
Quanta indignação
E5           F#5           B5
Será que esse grito é em vão!??
Compositor não encontrado.
Colaboración y revisión:
  • Matheus Gomes
3 vistas
    • ½ Tono
    • A
    • Bb
    • B
    • C
    • Db
    • D
    • Eb
    • E
    • F
    • F#
    • G
    • Ab
  • Agregar a la lista

    0 comentarios

    Ver todos los comentarios

    ¿Lograste tocar?

    0 Tocaron 0 Aún no

    ¡Graba un video tocando Qual A Violência y envíanoslo!

    00:00 / 00:00
    Outros vídeos desta música
    Repetir Calidad Automático
    Outros vídeos desta música
    00:00 / 00:00
    Automático
    OK