Cifra Club

Somos vivos

Cólera

Cifrado: Principal (guitarra y guitarra eléctrica)
tono: A
Introd.:

SOLO:


e|------------------------------------------------------------------------
B|------------------------------------------------------------------------
G|------------------------------------------------------------------------
D|--7-7-7------7-7-7----------------7-7-7------7-7-7----------------------
A|------ 8-8-8-------10-10-10-8-8-9-------8-8-8------10-10-10-8-8-9-------
E|------------------------------------------------------------------------

e|------------------------------------------------------------------------
B|------------------------------------------------------------------------
G|------------------------------------------------------------------------
D|--------------------------8-8-8-7-7-------7-7-7-7-7-7-7-7---------------
A|--10-10-10-7-7-7-10-10-10-----------10-10-------------------------------
E|------------------------------------------------------------------------


A BASE FICA ASSIM:

A- A- F G F G A- A- F G C B C

A-
Sempre, sempre suicído
F           G
Meu orgulho pessoal
A
Por que a gente nunca sabe
F          G
Se sabemos pra valer
A
Quando pego o trem subúrbio
F           G
Caio dentro do real
A
Cada um é um universo
F           G
Face a face com você
C     A
SOMOS VIVOS
G                        C          A-
MAS NASCEMOS SEMPRE QUE ERRAMOS
G F# F E D# D C#    C       A-
                    ATÉ QUANDO
G                        C          A-
VAMOS ESCONDER OS NOSSOS BRAÇOS

G G# A- F G F G A- F G C B C

A-
Sinto que não temos tempo
   F          G
Acabou a pulsação
A-
Dê uma olhada para cima
F             G
Dê uma olhada pra você
A-
Quando pego o trem subúrbio
F           G
Caio dentro do real
A-
Cada um é um universo
F           G
Face a face com você.

(Solo introdução)
Composición de Redson
Colaboración y revisión:
  • MÁRIO COSTA
33 vistas
    • ½ Tono
    • A
    • Bb
    • B
    • C
    • Db
    • D
    • Eb
    • E
    • F
    • F#
    • G
    • Ab
  • Agregar a la lista

    0 comentarios

    Ver todos los comentarios

    ¿Lograste tocar?

    0 Tocaron 0 Aún no

    ¡Graba un video tocando Somos vivos y envíanoslo!

    00:00 / 00:00
    Outros vídeos desta música
    Repetir Calidad Automático
    Outros vídeos desta música
    00:00 / 00:00
    Automático
    OK