Cifra Club

Idilio

Willie Colón

Cifrado: Versão 3 (guitarra y guitarra eléctrica)
Selo Cifra Club: esta cifra foi revisada para atender aos critérios oficiais da nossa Equipe de Qualidade.
tono: Em
Intro: E - Am - D - G - C - B - Em
E|---------------------------------------------------------------------|
B|---6-6-4-6-4-6-4---4---6---------------8-6---------------------------|
G|-5---------------6---6---6-------5-6-8-----8-5-6---------------------|
D|---------------------------8---8-----------------8-6-5----------5-6--|
A|--------------------------------------------------------6-8-6-8------|
E|---------------------------------------------------------------------|

E|-------------------------------------------------------------|
B|-----------------------------------------6-5-----------------|
G|-----------3-4.-3---4-4-4-3---4/5----6-5-----5.-4-3----3/1---|
D|---------6--------6---------6-----5------------------3-----3-|
A|-------6-----------------------------------------------------|
E|-4-6-7-------------------------------------------------------|


          Em             B                 Em
Solo me alienta el deseo divino de hacerte mia
           E                                Am
mas me destruye la insertidumbre que estoy pasando
          B                                      Em
es que la nieve cruel de los años mi cuerpo enfría
          F#                               B
y se me agota ya la paciencia por ti esperando
                                          Em
y se me agota ya la paciencia por ti esperando.


*CORO
        E                              Am
Que a besos yo te levante al rayar el día
           D                                  G
y que el idilio perdure siempre al llegar la noche
   C                              B
y cuando venga la aurora llena de goce
                                    Em
se fundan en una sola tu alma y la mía.              [x2]


Solo: E - Am - D - G - C - B - Em
E|------------------------------------|
B|------------6-----------------------|
G|-4-5----4-5--------(| muy rápido :D)--
D|-----3------------------------------|
A|------------------------------------|
E|------------------------------------|

E|---------------------------------------------------------------|
B|---------8-6---------------------------------------------------|
G|---5-6-8-----8-6-5-----------------1-3-4.-3-1------------------|
D|-8-----------------8-8-6-8-6-----------------3-1---------------|
A|-----------------------------6-------------------4-6-4-6/7-3.--|
E|---------------------------------------------------------------|

E|---------------------------------|
B|-----2-1-----6-5-----------------|
G|---1-------5-----5-4-3.----3-1---|
D|-3-----------------------3-----3-|
A|---------------------------------|
E|---------------------------------|


*CORO (x2)
     B            F#m     B7         Em
se fundan en una sola tu alma y la mia.


Em - Am - B - Em (x3)


Em   Am     D   G     C  Am                B         Em
Soñando  contigo queriendo que se cumpla nuestro idilio
(Em - Am - D - G - C - Am - B - Em)
A veces yo me voy a un rincón
y me quedo en el vacío, sufriendo por ti amor mio
te llama mi corazón.
Em   Am     D   G     C  Am                B         Em
Soñando  contigo queriendo que se cumpla nuestro idilio
(Em - Am - D - G - C - Am - B - Em)
Y veras lo lindo que es el amor cuando se quiere de verdad
no existe duda, no existe el rencor
solo un coraszón que es para los dos!

Em - Am - B - Em (x3)

Guapea Willie Colón!!!

Solo: Em - Am - B
E|---8---6--------------------------------------------------------|
B|-----------6----6-6-6-| <8>.-6-6-6-<8>.-6-6-6-<8>.--9/11.-9-8-----
G|-5---5---5--------------------------------------------------10--|
D|----------------------------------------------------------------|
A|----------------------------------------------------------------|
E|----------------------------------------------------------------|

E|---------------------------------------------|
B|-9/11p9-9/11p9-9/11p9-9/11p9-9/11p9--9/11----|
G|------------------------------------------9--|
D|---------------------------------------------|
A|---------------------------------------------|
E|---------------------------------------------|

E|-----------------------------------------|
B|-------6-4---------------------5---9/11.-|
G|-5-5-5-----5-----------5---6-5-----------|
D|-------------7-5---8-7---7-------5-------|
A|-----------------8-----------------------|
E|-----------------------------------------|


Em   Am     D   G     C  Am                B         Em
Soñando contigo queriendo que se cumpla nuestro idilio
(Em - Am - D - G - C - Am - B - Em)
Eeeh yo esperaría mil años si fuera tu condición
pero el tiempo va volando, ven y calma mi pasión.
Em   Am     D   G     C  Am                B         Em
Soñando contigo queriendo que se cumpla nuestro idilio
(Em - Am - D - G - C - Am - B - Em)
Y así muy juntos volver a sentir que se funden tu alma y la mía
en un abrazo, un idilio de amor.



Fm - A#m - C - Fm (x4)




E|--------|
                º-| ¤    ¤ |-º
                º-|  LuïS  |-º
                º-| ¤    ¤ |-º
                          /
                    |    |
        ·===========================·
        ·===========================·
Otros videos de esta canción
    141 exhibiciones
      • ½ Tono
      • Am
      • Bbm
      • Bm
      • Cm
      • C#m
      • Dm
      • Ebm
      • Em
      • Fm
      • F#m
      • Gm
      • G#m
    • Agregar a la lista

    Afinação da cifra

    Afinador online

      Ops (: Contenido disponible solo en portugués.
      OK