Cifra Club

Idilio

Willie Colón

Cifrado: Versão 2 (guitarra y guitarra eléctrica)
Selo Cifra Club: esta cifra foi revisada para atender aos critérios oficiais da nossa Equipe de Qualidade.
tono: Fm
E|---------------------------8-----------|
B|---------------------------------------|
G|---------------------------------------|
SO -5-----8---8---8-6-8-6---6-------------
E|---------------------------------------|
B|---6-6---6---6---------6---------------|

E|----8-----------------8-6-5---------5-6|
B|----------------------------6-8-6-8----|
G|---------------------------------------|
SO ------5-6-8-----8-6-5------------------
E|---------------------------------------|
B|------------8-6------------------------|

E|---------6-8-9-8-6-9-9-9-8-6-9---5-----|
B|-------6-------------------------------|
G|-4-6-8---------------------------------|
SO -------------------------------6-------
E|---------------------------------------|
B|---------------------------------------|

E|---------------------3-----------------|
B|---------------------------------------|
G|---------------------------------------|
SO -6-5-----5-4-3-1-3-1-------------------
E|---------------------------------------|
B|-----6-5-------------------------------|


Fm                         C                Fm 
Solo me alienta el deseo divino de hacerte mia,

           F                                 A#m 
mas me destruye la incetidumbre que estoy pasando,

              C                                  Fm 
y es que la nieve cruel de los años mi cuerpo enfria,

          G                               C 
y se me agota ya la paciencia por ti esperando.

C                                         Fm 
Y se me agota ya la paciencia por ti esperando,

        F                           A#m 
que a besos yo te levante al rayar el dia,

           D#                                G#  
y que el idilio perdure siempre al llegar la noche.

     C#                           C 
Y cuando llegue la aurora llena de goce,

                                 Fm 
se fundan en una sola tu alma y la mia.

F                                     A#m 
Que a besos yo te levante al rayar el dia
(el dia nos sorprenda corazon)

           D#                                 G#  
y que el idilio perdure siempre al llegar la noche,
(la noche sea tan solo de los dos)

    C#                              C 
y cuando llegue la aurora llena de goce,
(juntos solos tu y yo)

                                 Fm 
se fundan en una sola tu alma y la mía.

E|------------------------------------------------------|
Transcripción del solo de trompeta.

E|----3---------------3-----------3-------------3-2-1|
B|----------------------4-3-1-3-4--------------------|
G|---------------------------------------------------|
SO -4------4-------2-3---------------3-2-----3-2------
E|------------1--------------------------------------|
B|---1------1---------------------------2-1----------|

E|-3---------------------------1-------------3-1-----|
B|-----------------------------------------------4---|
G|---------------------------------------------------|
SO ---2---------------3-3-1-3-1---1-3-1-4-3-1---------
E|-------1-3-1---------------------------------------|
B|-----2-------4-2-1---------------------------------|

E|-1---2-----------------------------------3---------|
B|---4---3-------------------------------------------|
G|---------------------------------------------------|
SO -----------0-3-------------5-4-3---1-3-1-----------
E|---------------------------------------------------|
B|---------------2-1---1-6-5-------------------------|

E|-------3-4-3---------------------------------------|
B|-------------3-4-3---------------------------------|
G|-------------------1-------------------------------|
SO -1-3-1---------------------------------------------
B  ---------------------------------------------------
E  ---------------------------------------------------
E|------------------------------------------------------|

Se repite:

Que a besos yo te levante al rayar...

Fm   A#m   C   Fm    /  Fm   A#m   C   Fm 

     A#m  D#   G#      C#  C 
Soñando, contigo, queriendo que se cumpla nuestro

Fm 
idilio
Otros videos de esta canción
    231 exhibiciones
      • ½ Tono
      • Am
      • Bbm
      • Bm
      • Cm
      • C#m
      • Dm
      • Ebm
      • Em
      • Fm
      • F#m
      • Gm
      • G#m
    • Agregar a la lista

    Afinação da cifra

    Afinador online

      Ops (: Contenido disponible solo en portugués.
      OK