Cifra Club

Mi Sueño

Willie Colon

Cifrado: Principal (guitarra y guitarra eléctrica)
tono: Cm
    Cm7                Abmaj7        Dbmaj7
E|-------------------------------------------------|
B|------4-----4---------------4---------6----6-6-------|
G|------3-------------------------------5------5-------|
D|------5--4/5------------4h5-----------6-5/6--6---------|
A|----3---------6-3-------------6-----4--------4---------|
E|------------------6-5-4---------8-6--------------------|

     Cm7        G7(b13)   Cm7               Abmaj7
E|-----------------------|----------3---------------3-4-3--|
B|------4-----4--4-4-----|----4-3-------------4-3---4-4-4--|
G|---------------4-4-----|----3---5-----------5---5--------|
D|--------4/5----3-3-----|----5---------------5------------|
A|----3------------------|--3-3-------3-------x------------|
E|---------------3-3-----|--------------6-5-4-4------------|
   Dbmaj7                      G7(b13)
E|------------------------------------------------|
B|----6-4----6-8-6-4----4-----6-4--4--------------|
G|----5---6--5-5-5-5--5---------4--4--------------|
D|----6-------------------4/5---3--3--------------|
A|--4----------------3----------------------------|
E|------------------------------3--3--------------|



Después de la intro la Canción empieza:

Entre paréntesis intento sugerirte unos arreglos en la guitarra para
ser más fiel a la versión original

Cm       Cm(maj7)/G  Cm7
Yo quiero esconderme nena
Cm6/G     Cm
Bajo de tu saya
    Cm(maj7)/G  Cm7   Cm6/G
Para huir del mundo.
   C7         C#7     C7
Pretendo también suavizar
C#7     C7      C#7  Fm(añades A  9 en A  1 cuerda y luego la #9)
El enredado de tus cabellos
  Fm7             Fm7/Eb  Dm7(b5)
Darle una transfusión de sangre
 B°7        G7              (A--3-5-6)(tocas octavadas y rápido Do, Re, Mib)
A este corazón que es tan vagabundo.
     Fm7       Bb7       Ebmaj7
Mas dejo de hacer mis dengos
        Ab7  Dm7(b5)    G7    Cm7     C7
Y prenderte velas para mis anhelos
    Fm7       Bb7   Ebmaj7
Mas dejo mi alucinamiento
     Ab7    Dm7(b5)    G7    Cm7
De hacer trabajos para mis afectos

Repites La estrofa y el precoro y todo con Los Mismos Acordes
Los acordes de "más dejo de hacer mis dengos y pren..." son
los mismos de "Y ven a curar tu negro que..." y así

Sólo cambia después de la estrofa de "yo quiero ser pacifi..."
Cuando despúes del coro dice:

...tuyos Mi melancolíia
   Fm                Cm
Y vente a curar tu negro
             G7              Cm   C7
Que llegó borracho de la bohemía
Fm               Cm
Y ven a curar tu neeegro
           G7               Cm    C7   Fm...
Que llegó borracho de la bohemía.
                       El resto son los mismos acordes se siente muy bien
                       en la salsa cuáles van en cada parte
Composición de Martinho da Vila / Willie Colón
4 vistas
    • ½ Tono
    • Am
    • Bbm
    • Bm
    • Cm
    • C#m
    • Dm
    • Ebm
    • Em
    • Fm
    • F#m
    • Gm
    • G#m
  • Agregar a la lista

    0 comentarios

    Ver todos los comentarios

    ¿Lograste tocar?

    0 Tocaron 0 Aún no

    ¡Graba un video tocando Mi Sueño y envíanoslo!

    00:00 / 00:00
    Outros vídeos desta música
    Repetir Calidad Automático
    Outros vídeos desta música
    00:00 / 00:00
    Automático
    OK