Cifra Club

Talento de TV

Willie Colón

Cifrado: Principal (guitarra y guitarra eléctrica)
Selo Cifra Club: esta cifra foi revisada para atender aos critérios oficiais da nossa Equipe de Qualidade.
tono: Bm
     D                       A
E||-----------------------|--------------------|
B||-----------------------|--------------------|
G||-----------2------4----|--2-----------------|
D||--0--4-----------------|--------------------|
A||-----------------------|--------------------|
E||-----------------------|--------------------|

 F#7                      Bm
E|-----------------------|--------------------| |
B|-----------------------|--------------------| |
G|-----------------------|--------------------| |
D|-----------4------5----|--4-----------------| |
A|--1--4-----------------|--------------------| |
E|-----------------------|--------------------| |


Esta es la nota que hace el trombón en la parte de:
"No tiene talento, pero es buena moza..."
E||-------------------||
B||-------------------||
G||--2----------------||
D||-------------------||
A||-------------------||
E||-------------------||


Esta figura va justo antes de que comience el verso de:
"Aquí está la salsa con changa y rap es mucho mejor..."
E||--------------------------||
B||--------------------------||
G||--------------------------||
D||--------------------------||
A||--------2-----3-----4--5--||
E||-----3--------------------||


Y por último estas son las figuras que van después de:
 "La, la,ra,la, la,ra,la,la..."
E||-------------------------|----------------------||
B||-------------------------|----------------------||
G||-----6-----6--4----2-----|--6----6----4---------||
D||-------------------------|----------------------||
A||-----7-----7--5----4-----|--7----7----5---------||
E||-------------------------|----------------------||
Otros videos de esta canción
    198 exhibiciones
      • ½ Tono
      • Am
      • Bbm
      • Bm
      • Cm
      • C#m
      • Dm
      • Ebm
      • Em
      • Fm
      • F#m
      • Gm
      • G#m
    • Agregar a la lista

    Afinación de cifrado

    Afinador online

      OK