Cifra Club

Easy

The Commodores

Cifrado: Principal (guitarra y guitarra eléctrica)
tono: A
[Intro] A  C#m7  Bm7  D/E
  
 A                 C#m7
  know it sounds funny but
              Bm7        D/E
  I just can't stand the pain
 A          C#m7
  Girl,I'm leaving you 
    Bm7       D/E
  tomorrowww !
 A              C#m7
  Seems to me,girl, you.
                   Bm7    D/E
  know I've done all I can
 A               C#m7          Bm7               D/E
  You see ,I've begged,stolen and I've borrowed

  D/E                        A    C#m7 Bm7 
Yeah!  Ohh, that´s why i´m easy 
  D/E                 A        C#m7 Bm7 D/E
I´m easy like Sunday morning 
         A   C#m7 Bm7    D/E
Why i´m easy      I´m easy like Sunday 
G D/F# Em A    
Mooooooorning   
A              C#m7 
Why in the world   would
             Bm7        D/E 
anybody put chains on me ?  
A      C#m7             Bm7    D/E
 I've paid  my dues to make it
A          C#m7 
 Everybody wants me to be 
           Bm7           D/E
what they wants me to be
A        C#m7                  Bm7        D/E
 I'm not happy when I try to fake it!  No 
                     A    C#m7 Bm7
 Ohh, that´s why i´m easy 
  D/E                 A        C#m7 Bm7 
I´m easy like Sunday morning 
         A   C#m7 Bm7   D/E
Why i´m easy      I´m easy like Sunday 
G D/F# Em A    
Mooooooorning 

A4 A          G7+   D/F#  Em
  I wanna be high ,so    high,
G/A         G7+ `                          D/F#      Em
I wanna be    free to know the things I do are  right
           
G/A            G7+    D/F#   Em
   I wanna be free ,just    me…
G/A              C  G/B A D A D/E
Whoa oh!   Baby!

E|--------------------|--------------------------|
B|----------------13/-|--------------------------|
G|-----------13~~-----|--------------------------|
D|--------------------|--------------------------|
A|---15p13------------|-15p1311-11~~--11---------|
E|---------16---------|--------------------------|

E|-----------------------------------------------|
B|---------16b18-12b13---------------------------|
G|---------------------13------------------------|
D|------------------------16-13------------------|
A|-15p13------------------------16-14-16b18r16---|
E|-------16-----------------------------------16~|

E|--------------------|--------------------------|
B|----------------13/-|--------------------------|
G|-----------13~~-----|--------------------------|
D|--------------------|--------------------------|
A|---15p13------------|-15p1311------------------|
E|---------16---------|--------------------------|

E|------------------14---------------------------|
B|---------16b18-16--------16--13----------------|
G|---------------------15b17-----15b17r15h13-----|
D|-------------------------------------------15--|
A|-15p13-----------------------------------------|
E|-------16--------------------------------------|

E|---13p11~--------------------------------------|
B|-----------------------------------------------|
G|-----------------------------------------------|
D|-----------------------------------------------|
A|-----------------------------------------------|
E|-----------------------------------------------|

                     A    C#m7 Bm7 
Ohh, that´s why i´m easy 
  D/E                 A        C#m7 Bm7 D/E
I´m easy like Sunday morning 
         A   C#m7 Bm7   D/E
Why i´m easy      I´m easy like Sunday 

G D/F# Em A   
Mooooooorning
Eb/F                  Bb   Dm7    Cm7
  Cause i´m easy
Eb/F                     ( Bb  Dm7  Cm7  Eb/F )
  Easy like Sunday morning,  yeah
00:00 / 00:00
Otros videos de esta canción
Repetir
Otros videos de esta canción
Composición de Lionel Richie
Colaboración y revisión:
6.507 vistas
    • ½ Tono
    • A
    • Bb
    • B
    • C
    • Db
    • D
    • Eb
    • E
    • F
    • F#
    • G
    • Ab
  • Agregar a la lista

    0 comentarios

    Ver todos los comentarios

    ¿Lograste tocar?

    7 Tocaron 0 Aún no

    ¡Graba un video tocando Easy y envíanoslo!

    00:00 / 00:00
    OK